ISO-10303-21;
HEADER;
FILE_DESCRIPTION (( 'STEP AP203' ),
    '1' );
FILE_NAME ('Web Model 11874_22455.step',
    '2022-06-07T18:26:21',
    ( 'WC' ),
    ( 'Windows Central' ),
    'SwSTEP 2.0',
    'SolidWorks 2021',
    '' );
FILE_SCHEMA (( 'CONFIG_CONTROL_DESIGN' ));
ENDSEC;

DATA;
#1 = ADVANCED_BREP_SHAPE_REPRESENTATION ( 'Web Model 11874_22455', ( #89, #173 ), #74 ) ;
#2 = APPLICATION_PROTOCOL_DEFINITION ( 'international standard', 'config_control_design', 1994, #120 ) ;
#3 = DATE_AND_TIME ( #124, #132 ) ;
#4 = VERTEX_POINT ( 'NONE', #142 ) ;
#5 = APPROVAL_DATE_TIME ( #3, #169 ) ;
#6 = DIRECTION ( 'NONE',  ( -0.000000000000000000, -0.000000000000000000, -1.000000000000000000 ) ) ;
#7 = COORDINATED_UNIVERSAL_TIME_OFFSET ( 5, 0, .BEHIND. ) ;
#8 = EDGE_CURVE ( 'NONE', #29, #4, #135, .T. ) ;
#9 = CIRCLE ( 'NONE', #138, 12.50000000000000000 ) ;
#10 = PLANE ( 'NONE',  #84 ) ;
#11 = PERSON_AND_ORGANIZATION_ROLE ( 'creator' ) ;
#12 = APPROVAL_PERSON_ORGANIZATION ( #37, #169, #165 ) ;
#13 = DIRECTION ( 'NONE',  ( 1.000000000000000000, 0.000000000000000000, -0.000000000000000000 ) ) ;
#14 = APPROVAL_PERSON_ORGANIZATION ( #111, #86, #31 ) ;
#15 = EDGE_LOOP ( 'NONE', ( #27, #79, #26, #69 ) ) ;
#16 = DATE_AND_TIME ( #55, #101 ) ;
#17 = DIRECTION ( 'NONE',  ( -0.000000000000000000, -0.000000000000000000, -1.000000000000000000 ) ) ;
#18 = PERSON_AND_ORGANIZATION ( #24, #59 ) ;
#19 = APPROVAL_PERSON_ORGANIZATION ( #117, #119, #134 ) ;
#20 = APPROVAL_DATE_TIME ( #121, #119 ) ;
#21 = DESIGN_CONTEXT ( 'detailed design', #120, 'design' ) ;
#22 = LOCAL_TIME ( 14, 26, 21.00000000000000000, #33 ) ;
#23 = APPROVAL_STATUS ( 'not_yet_approved' ) ;
#24 = PERSON ( 'UNSPECIFIED', 'UNSPECIFIED', 'UNSPECIFIED', ('UNSPECIFIED'), ('UNSPECIFIED'), ('UNSPECIFIED') ) ;
#25 = CC_DESIGN_DATE_AND_TIME_ASSIGNMENT ( #170, #49, ( #50 ) ) ;
#26 = ORIENTED_EDGE ( 'NONE', *, *, #125, .T. ) ;
#27 = ORIENTED_EDGE ( 'NONE', *, *, #149, .F. ) ;
#28 = LOCAL_TIME ( 14, 26, 21.00000000000000000, #66 ) ;
#29 = VERTEX_POINT ( 'NONE', #90 ) ;
#30 = SECURITY_CLASSIFICATION_LEVEL ( 'unclassified' ) ;
#31 = APPROVAL_ROLE ( '' ) ;
#32 = DIRECTION ( 'NONE',  ( 0.000000000000000000, 0.000000000000000000, 1.000000000000000000 ) ) ;
#33 = COORDINATED_UNIVERSAL_TIME_OFFSET ( 5, 0, .BEHIND. ) ;
#34 = CARTESIAN_POINT ( 'NONE',  ( -12.50000000000000000, 0.000000000000000000, 0.5000000000000000000 ) ) ;
#35 = PRODUCT_DEFINITION_FORMATION_WITH_SPECIFIED_SOURCE ( 'ANY', '', #154, .NOT_KNOWN. ) ;
#36 = CARTESIAN_POINT ( 'NONE',  ( 0.000000000000000000, 0.000000000000000000, 0.000000000000000000 ) ) ;
#37 = PERSON_AND_ORGANIZATION ( #24, #59 ) ;
#38 = AXIS2_PLACEMENT_3D ( 'NONE', #115, #61, #157 ) ;
#39 = EDGE_CURVE ( 'NONE', #81, #112, #137, .T. ) ;
#40 = APPLICATION_CONTEXT ( 'configuration controlled 3d designs of mechanical parts and assemblies' ) ;
#41 = APPROVAL_DATE_TIME ( #108, #86 ) ;
#42 = DATE_TIME_ROLE ( 'classification_date' ) ;
#43 = AXIS2_PLACEMENT_3D ( 'NONE', #133, #53, #13 ) ;
#44 = CYLINDRICAL_SURFACE ( 'NONE', #143, 12.50000000000000000 ) ;
#45 = CARTESIAN_POINT ( 'NONE',  ( 0.000000000000000000, 0.000000000000000000, 0.5000000000000000000 ) ) ;
#46 = CYLINDRICAL_SURFACE ( 'NONE', #150, 12.50000000000000000 ) ;
#47 = LINE ( 'NONE', #82, #51 ) ;
#48 = PRODUCT_RELATED_PRODUCT_CATEGORY ( 'detail', '', ( #154 ) ) ;
#49 = DATE_TIME_ROLE ( 'creation_date' ) ;
#50 = PRODUCT_DEFINITION ( 'UNKNOWN', '', #35, #21 ) ;
#51 = VECTOR ( 'NONE', #6, 1000.000000000000000 ) ;
#52 = CC_DESIGN_PERSON_AND_ORGANIZATION_ASSIGNMENT ( #97, #72, ( #175 ) ) ;
#53 = DIRECTION ( 'NONE',  ( 0.000000000000000000, 0.000000000000000000, 1.000000000000000000 ) ) ;
#54 = ADVANCED_FACE ( 'NONE', ( #144 ), #44, .T. ) ;
#55 = CALENDAR_DATE ( 2022, 7, 6 ) ;
#56 = DIRECTION ( 'NONE',  ( -1.000000000000000000, 0.000000000000000000, 0.000000000000000000 ) ) ;
#57 = DIRECTION ( 'NONE',  ( 1.000000000000000000, 0.000000000000000000, 0.000000000000000000 ) ) ;
#58 = DIRECTION ( 'NONE',  ( -1.000000000000000000, 0.000000000000000000, 0.000000000000000000 ) ) ;
#59 = ORGANIZATION ( 'UNSPECIFIED', 'UNSPECIFIED', '' ) ;
#60 = FACE_OUTER_BOUND ( 'NONE', #15, .T. ) ;
#61 = DIRECTION ( 'NONE',  ( 0.000000000000000000, 0.000000000000000000, 1.000000000000000000 ) ) ;
#62 = COORDINATED_UNIVERSAL_TIME_OFFSET ( 5, 0, .BEHIND. ) ;
#63 = CC_DESIGN_PERSON_AND_ORGANIZATION_ASSIGNMENT ( #164, #91, ( #154 ) ) ;
#64 = CARTESIAN_POINT ( 'NONE',  ( 12.50000000000000000, 1.530808498934191521E-15, 0.5000000000000000000 ) ) ;
#65 = CIRCLE ( 'NONE', #106, 12.50000000000000000 ) ;
#66 = COORDINATED_UNIVERSAL_TIME_OFFSET ( 5, 0, .BEHIND. ) ;
#67 = ORIENTED_EDGE ( 'NONE', *, *, #8, .F. ) ;
#68 = CC_DESIGN_APPROVAL ( #119, ( #50 ) ) ;
#69 = ORIENTED_EDGE ( 'NONE', *, *, #147, .T. ) ;
#70 = ORIENTED_EDGE ( 'NONE', *, *, #147, .F. ) ;
#71 = FACE_OUTER_BOUND ( 'NONE', #139, .T. ) ;
#72 = PERSON_AND_ORGANIZATION_ROLE ( 'classification_officer' ) ;
#73 = CC_DESIGN_DATE_AND_TIME_ASSIGNMENT ( #16, #42, ( #175 ) ) ;
#74 =( GEOMETRIC_REPRESENTATION_CONTEXT ( 3 ) GLOBAL_UNCERTAINTY_ASSIGNED_CONTEXT ( ( #75 ) ) GLOBAL_UNIT_ASSIGNED_CONTEXT ( ( #77, #171, #159 ) ) REPRESENTATION_CONTEXT ( 'NONE', 'WORKASPACE' ) );
#75 = UNCERTAINTY_MEASURE_WITH_UNIT (LENGTH_MEASURE( 1.000000000000000082E-05 ), #77, 'distance_accuracy_value', 'NONE');
#76 = PERSON_AND_ORGANIZATION ( #24, #59 ) ;
#77 =( LENGTH_UNIT ( ) NAMED_UNIT ( * ) SI_UNIT ( .MILLI., .METRE. ) );
#78 = APPROVAL_STATUS ( 'not_yet_approved' ) ;
#79 = ORIENTED_EDGE ( 'NONE', *, *, #39, .F. ) ;
#80 = EDGE_LOOP ( 'NONE', ( #174, #122, #153, #109 ) ) ;
#81 = VERTEX_POINT ( 'NONE', #34 ) ;
#82 = CARTESIAN_POINT ( 'NONE',  ( -12.50000000000000000, 0.000000000000000000, 0.5000000000000000000 ) ) ;
#83 = CALENDAR_DATE ( 2022, 7, 6 ) ;
#84 = AXIS2_PLACEMENT_3D ( 'NONE', #102, #158, #168 ) ;
#85 = DIRECTION ( 'NONE',  ( 0.000000000000000000, 0.000000000000000000, 1.000000000000000000 ) ) ;
#86 = APPROVAL ( #99, 'UNSPECIFIED' ) ;
#87 = CARTESIAN_POINT ( 'NONE',  ( 0.000000000000000000, 0.000000000000000000, 0.5000000000000000000 ) ) ;
#88 = ADVANCED_FACE ( 'NONE', ( #60 ), #46, .T. ) ;
#89 = MANIFOLD_SOLID_BREP ( 'Boss-Extrude1', #94 ) ;
#90 = CARTESIAN_POINT ( 'NONE',  ( 12.50000000000000000, 1.530808498934191521E-15, -0.5000000000000000000 ) ) ;
#91 = PERSON_AND_ORGANIZATION_ROLE ( 'design_owner' ) ;
#92 = CC_DESIGN_PERSON_AND_ORGANIZATION_ASSIGNMENT ( #76, #11, ( #50 ) ) ;
#93 = DIRECTION ( 'NONE',  ( 1.000000000000000000, 0.000000000000000000, 0.000000000000000000 ) ) ;
#94 = CLOSED_SHELL ( 'NONE', ( #54, #88, #113, #161 ) ) ;
#95 = DIRECTION ( 'NONE',  ( -0.000000000000000000, -0.000000000000000000, -1.000000000000000000 ) ) ;
#96 = EDGE_CURVE ( 'NONE', #112, #81, #65, .T. ) ;
#97 = PERSON_AND_ORGANIZATION ( #24, #59 ) ;
#98 = SHAPE_DEFINITION_REPRESENTATION ( #123, #1 ) ;
#99 = APPROVAL_STATUS ( 'not_yet_approved' ) ;
#100 = DIRECTION ( 'NONE',  ( 0.000000000000000000, 0.000000000000000000, 1.000000000000000000 ) ) ;
#101 = LOCAL_TIME ( 14, 26, 21.00000000000000000, #7 ) ;
#102 = CARTESIAN_POINT ( 'NONE',  ( 0.000000000000000000, 0.000000000000000000, 0.5000000000000000000 ) ) ;
#103 = DIRECTION ( 'NONE',  ( -0.000000000000000000, -0.000000000000000000, -1.000000000000000000 ) ) ;
#104 = CALENDAR_DATE ( 2022, 7, 6 ) ;
#105 = VECTOR ( 'NONE', #95, 1000.000000000000000 ) ;
#106 = AXIS2_PLACEMENT_3D ( 'NONE', #140, #100, #114 ) ;
#107 = CC_DESIGN_PERSON_AND_ORGANIZATION_ASSIGNMENT ( #18, #152, ( #35 ) ) ;
#108 = DATE_AND_TIME ( #83, #22 ) ;
#109 = ORIENTED_EDGE ( 'NONE', *, *, #125, .F. ) ;
#110 = COORDINATED_UNIVERSAL_TIME_OFFSET ( 5, 0, .BEHIND. ) ;
#111 = PERSON_AND_ORGANIZATION ( #24, #59 ) ;
#112 = VERTEX_POINT ( 'NONE', #129 ) ;
#113 = ADVANCED_FACE ( 'NONE', ( #71 ), #10, .T. ) ;
#114 = DIRECTION ( 'NONE',  ( 1.000000000000000000, 0.000000000000000000, 0.000000000000000000 ) ) ;
#115 = CARTESIAN_POINT ( 'NONE',  ( 0.000000000000000000, 0.000000000000000000, -0.5000000000000000000 ) ) ;
#116 = DIRECTION ( 'NONE',  ( 1.000000000000000000, 0.000000000000000000, 0.000000000000000000 ) ) ;
#117 = PERSON_AND_ORGANIZATION ( #24, #59 ) ;
#118 = LOCAL_TIME ( 14, 26, 21.00000000000000000, #62 ) ;
#119 = APPROVAL ( #78, 'UNSPECIFIED' ) ;
#120 = APPLICATION_CONTEXT ( 'configuration controlled 3d designs of mechanical parts and assemblies' ) ;
#121 = DATE_AND_TIME ( #131, #28 ) ;
#122 = ORIENTED_EDGE ( 'NONE', *, *, #149, .T. ) ;
#123 = PRODUCT_DEFINITION_SHAPE ( 'NONE', 'NONE',  #50 ) ;
#124 = CALENDAR_DATE ( 2022, 7, 6 ) ;
#125 = EDGE_CURVE ( 'NONE', #81, #4, #47, .T. ) ;
#126 = PERSON_AND_ORGANIZATION ( #24, #59 ) ;
#127 = CARTESIAN_POINT ( 'NONE',  ( 0.000000000000000000, 0.000000000000000000, 0.5000000000000000000 ) ) ;
#128 = CC_DESIGN_SECURITY_CLASSIFICATION ( #175, ( #35 ) ) ;
#129 = CARTESIAN_POINT ( 'NONE',  ( 12.50000000000000000, 1.530808498934191521E-15, 0.5000000000000000000 ) ) ;
#130 = MECHANICAL_CONTEXT ( 'NONE', #40, 'mechanical' ) ;
#131 = CALENDAR_DATE ( 2022, 7, 6 ) ;
#132 = LOCAL_TIME ( 14, 26, 21.00000000000000000, #110 ) ;
#133 = CARTESIAN_POINT ( 'NONE',  ( 0.000000000000000000, 0.000000000000000000, -0.5000000000000000000 ) ) ;
#134 = APPROVAL_ROLE ( '' ) ;
#135 = CIRCLE ( 'NONE', #38, 12.50000000000000000 ) ;
#136 = EDGE_LOOP ( 'NONE', ( #70, #67 ) ) ;
#137 = CIRCLE ( 'NONE', #162, 12.50000000000000000 ) ;
#138 = AXIS2_PLACEMENT_3D ( 'NONE', #167, #85, #57 ) ;
#139 = EDGE_LOOP ( 'NONE', ( #166, #148 ) ) ;
#140 = CARTESIAN_POINT ( 'NONE',  ( 0.000000000000000000, 0.000000000000000000, 0.5000000000000000000 ) ) ;
#141 = CC_DESIGN_PERSON_AND_ORGANIZATION_ASSIGNMENT ( #126, #151, ( #35 ) ) ;
#142 = CARTESIAN_POINT ( 'NONE',  ( -12.50000000000000000, 0.000000000000000000, -0.5000000000000000000 ) ) ;
#143 = AXIS2_PLACEMENT_3D ( 'NONE', #45, #17, #58 ) ;
#144 = FACE_OUTER_BOUND ( 'NONE', #80, .T. ) ;
#145 = PLANE ( 'NONE',  #43 ) ;
#146 = DIRECTION ( 'NONE',  ( 0.000000000000000000, 0.000000000000000000, 1.000000000000000000 ) ) ;
#147 = EDGE_CURVE ( 'NONE', #4, #29, #9, .T. ) ;
#148 = ORIENTED_EDGE ( 'NONE', *, *, #96, .T. ) ;
#149 = EDGE_CURVE ( 'NONE', #112, #29, #155, .T. ) ;
#150 = AXIS2_PLACEMENT_3D ( 'NONE', #87, #103, #56 ) ;
#151 = PERSON_AND_ORGANIZATION_ROLE ( 'creator' ) ;
#152 = PERSON_AND_ORGANIZATION_ROLE ( 'design_supplier' ) ;
#153 = ORIENTED_EDGE ( 'NONE', *, *, #8, .T. ) ;
#154 = PRODUCT ( 'Web Model 11874_22455', 'Web Model 11874_22455', '', ( #130 ) ) ;
#155 = LINE ( 'NONE', #64, #105 ) ;
#156 = CC_DESIGN_APPROVAL ( #169, ( #35 ) ) ;
#157 = DIRECTION ( 'NONE',  ( 1.000000000000000000, 0.000000000000000000, 0.000000000000000000 ) ) ;
#158 = DIRECTION ( 'NONE',  ( 0.000000000000000000, 0.000000000000000000, 1.000000000000000000 ) ) ;
#159 =( NAMED_UNIT ( * ) SI_UNIT ( $, .STERADIAN. ) SOLID_ANGLE_UNIT ( ) );
#160 = APPLICATION_PROTOCOL_DEFINITION ( 'international standard', 'config_control_design', 1994, #40 ) ;
#161 = ADVANCED_FACE ( 'NONE', ( #172 ), #145, .F. ) ;
#162 = AXIS2_PLACEMENT_3D ( 'NONE', #127, #32, #116 ) ;
#163 = CC_DESIGN_APPROVAL ( #86, ( #175 ) ) ;
#164 = PERSON_AND_ORGANIZATION ( #24, #59 ) ;
#165 = APPROVAL_ROLE ( '' ) ;
#166 = ORIENTED_EDGE ( 'NONE', *, *, #39, .T. ) ;
#167 = CARTESIAN_POINT ( 'NONE',  ( 0.000000000000000000, 0.000000000000000000, -0.5000000000000000000 ) ) ;
#168 = DIRECTION ( 'NONE',  ( 1.000000000000000000, 0.000000000000000000, -0.000000000000000000 ) ) ;
#169 = APPROVAL ( #23, 'UNSPECIFIED' ) ;
#170 = DATE_AND_TIME ( #104, #118 ) ;
#171 =( NAMED_UNIT ( * ) PLANE_ANGLE_UNIT ( ) SI_UNIT ( $, .RADIAN. ) );
#172 = FACE_OUTER_BOUND ( 'NONE', #136, .T. ) ;
#173 = AXIS2_PLACEMENT_3D ( 'NONE', #36, #146, #93 ) ;
#174 = ORIENTED_EDGE ( 'NONE', *, *, #96, .F. ) ;
#175 = SECURITY_CLASSIFICATION ( '', '', #30 ) ;
ENDSEC;
END-ISO-10303-21;
