ISO-10303-21;
HEADER;
FILE_DESCRIPTION (( 'STEP AP203' ),
    '1' );
FILE_NAME ('Web Model 87700_19715.step',
    '2021-10-06T19:16:08',
    ( '' ),
    ( '' ),
    'SwSTEP 2.0',
    'SolidWorks 2018',
    '' );
FILE_SCHEMA (( 'CONFIG_CONTROL_DESIGN' ));
ENDSEC;

DATA;
#1 = DATE_TIME_ROLE ( 'creation_date' ) ;
#2 = PERSON_AND_ORGANIZATION_ROLE ( 'design_supplier' ) ;
#3 = PERSON_AND_ORGANIZATION ( #110, #78 ) ;
#4 = APPROVAL ( #111, 'UNSPECIFIED' ) ;
#5 = AXIS2_PLACEMENT_3D ( 'NONE', #49, #39, #169 ) ;
#6 = PERSON_AND_ORGANIZATION ( #110, #78 ) ;
#7 = CYLINDRICAL_SURFACE ( 'NONE', #151, 6.349999999999999645 ) ;
#8 = DIRECTION ( 'NONE',  ( 0.000000000000000000, 0.000000000000000000, 1.000000000000000000 ) ) ;
#9 = PLANE ( 'NONE',  #85 ) ;
#10 = DATE_AND_TIME ( #28, #123 ) ;
#11 = CARTESIAN_POINT ( 'NONE',  ( 0.000000000000000000, 0.000000000000000000, 1.000000000000000000 ) ) ;
#12 = DIRECTION ( 'NONE',  ( -1.000000000000000000, 0.000000000000000000, 0.000000000000000000 ) ) ;
#13 = DIRECTION ( 'NONE',  ( 1.000000000000000000, 0.000000000000000000, 0.000000000000000000 ) ) ;
#14 = COORDINATED_UNIVERSAL_TIME_OFFSET ( 5, 0, .BEHIND. ) ;
#15 = CC_DESIGN_DATE_AND_TIME_ASSIGNMENT ( #33, #1, ( #88 ) ) ;
#16 = ORIENTED_EDGE ( 'NONE', *, *, #76, .F. ) ;
#17 = VECTOR ( 'NONE', #53, 1000.000000000000000 ) ;
#18 = CC_DESIGN_DATE_AND_TIME_ASSIGNMENT ( #158, #148, ( #27 ) ) ;
#19 = CIRCLE ( 'NONE', #5, 6.349999999999999645 ) ;
#20 = ADVANCED_FACE ( 'NONE', ( #56 ), #7, .T. ) ;
#21 = APPLICATION_PROTOCOL_DEFINITION ( 'international standard', 'config_control_design', 1994, #22 ) ;
#22 = APPLICATION_CONTEXT ( 'configuration controlled 3d designs of mechanical parts and assemblies' ) ;
#23 = CALENDAR_DATE ( 2021, 6, 10 ) ;
#24 = DESIGN_CONTEXT ( 'detailed design', #74, 'design' ) ;
#25 = CALENDAR_DATE ( 2021, 6, 10 ) ;
#26 = PERSON_AND_ORGANIZATION_ROLE ( 'creator' ) ;
#27 = SECURITY_CLASSIFICATION ( '', '', #72 ) ;
#28 = CALENDAR_DATE ( 2021, 6, 10 ) ;
#29 = ORIENTED_EDGE ( 'NONE', *, *, #76, .T. ) ;
#30 = ORIENTED_EDGE ( 'NONE', *, *, #96, .T. ) ;
#31 = CC_DESIGN_PERSON_AND_ORGANIZATION_ASSIGNMENT ( #46, #147, ( #27 ) ) ;
#32 = ADVANCED_BREP_SHAPE_REPRESENTATION ( 'Web Model 87700_19715', ( #89, #154 ), #45 ) ;
#33 = DATE_AND_TIME ( #23, #90 ) ;
#34 = APPROVAL_PERSON_ORGANIZATION ( #171, #80, #161 ) ;
#35 = PERSON_AND_ORGANIZATION ( #110, #78 ) ;
#36 = DIRECTION ( 'NONE',  ( 0.000000000000000000, 0.000000000000000000, 1.000000000000000000 ) ) ;
#37 = DIRECTION ( 'NONE',  ( 0.000000000000000000, 0.000000000000000000, 1.000000000000000000 ) ) ;
#38 = PRODUCT ( 'Web Model 87700_19715', 'Web Model 87700_19715', '', ( #66 ) ) ;
#39 = DIRECTION ( 'NONE',  ( 0.000000000000000000, 0.000000000000000000, 1.000000000000000000 ) ) ;
#40 = DIRECTION ( 'NONE',  ( -0.000000000000000000, -0.000000000000000000, -1.000000000000000000 ) ) ;
#41 = PERSON_AND_ORGANIZATION ( #110, #78 ) ;
#42 = EDGE_CURVE ( 'NONE', #140, #50, #146, .T. ) ;
#43 = APPROVAL_ROLE ( '' ) ;
#44 = EDGE_LOOP ( 'NONE', ( #152, #107, #153, #69 ) ) ;
#45 =( GEOMETRIC_REPRESENTATION_CONTEXT ( 3 ) GLOBAL_UNCERTAINTY_ASSIGNED_CONTEXT ( ( #115 ) ) GLOBAL_UNIT_ASSIGNED_CONTEXT ( ( #82, #81, #102 ) ) REPRESENTATION_CONTEXT ( 'NONE', 'WORKASPACE' ) );
#46 = PERSON_AND_ORGANIZATION ( #110, #78 ) ;
#47 = LINE ( 'NONE', #143, #121 ) ;
#48 = PRODUCT_DEFINITION_FORMATION_WITH_SPECIFIED_SOURCE ( 'ANY', '', #38, .NOT_KNOWN. ) ;
#49 = CARTESIAN_POINT ( 'NONE',  ( 0.000000000000000000, 0.000000000000000000, 1.000000000000000000 ) ) ;
#50 = VERTEX_POINT ( 'NONE', #62 ) ;
#51 = ADVANCED_FACE ( 'NONE', ( #162 ), #91, .T. ) ;
#52 = DIRECTION ( 'NONE',  ( -0.000000000000000000, -0.000000000000000000, -1.000000000000000000 ) ) ;
#53 = DIRECTION ( 'NONE',  ( -0.000000000000000000, -0.000000000000000000, -1.000000000000000000 ) ) ;
#54 = DIRECTION ( 'NONE',  ( 1.000000000000000000, 0.000000000000000000, -0.000000000000000000 ) ) ;
#55 = AXIS2_PLACEMENT_3D ( 'NONE', #120, #67, #13 ) ;
#56 = FACE_OUTER_BOUND ( 'NONE', #94, .T. ) ;
#57 = APPROVAL_ROLE ( '' ) ;
#58 = CIRCLE ( 'NONE', #174, 6.349999999999999645 ) ;
#59 = PERSON_AND_ORGANIZATION ( #110, #78 ) ;
#60 = AXIS2_PLACEMENT_3D ( 'NONE', #168, #8, #100 ) ;
#61 = DATE_AND_TIME ( #175, #167 ) ;
#62 = CARTESIAN_POINT ( 'NONE',  ( -6.349999999999999645, 0.000000000000000000, -1.000000000000000000 ) ) ;
#63 = ORIENTED_EDGE ( 'NONE', *, *, #141, .T. ) ;
#64 = COORDINATED_UNIVERSAL_TIME_OFFSET ( 5, 0, .BEHIND. ) ;
#65 = CARTESIAN_POINT ( 'NONE',  ( 0.000000000000000000, 0.000000000000000000, 1.000000000000000000 ) ) ;
#66 = MECHANICAL_CONTEXT ( 'NONE', #22, 'mechanical' ) ;
#67 = DIRECTION ( 'NONE',  ( 0.000000000000000000, 0.000000000000000000, 1.000000000000000000 ) ) ;
#68 = COORDINATED_UNIVERSAL_TIME_OFFSET ( 5, 0, .BEHIND. ) ;
#69 = ORIENTED_EDGE ( 'NONE', *, *, #129, .T. ) ;
#70 = LOCAL_TIME ( 15, 16, 8.000000000000000000, #64 ) ;
#71 = CC_DESIGN_SECURITY_CLASSIFICATION ( #27, ( #48 ) ) ;
#72 = SECURITY_CLASSIFICATION_LEVEL ( 'unclassified' ) ;
#73 = PRODUCT_DEFINITION_SHAPE ( 'NONE', 'NONE',  #88 ) ;
#74 = APPLICATION_CONTEXT ( 'configuration controlled 3d designs of mechanical parts and assemblies' ) ;
#75 = APPROVAL_DATE_TIME ( #10, #80 ) ;
#76 = EDGE_CURVE ( 'NONE', #124, #140, #92, .T. ) ;
#77 = COORDINATED_UNIVERSAL_TIME_OFFSET ( 5, 0, .BEHIND. ) ;
#78 = ORGANIZATION ( 'UNSPECIFIED', 'UNSPECIFIED', '' ) ;
#79 = CARTESIAN_POINT ( 'NONE',  ( 6.349999999999999645, 7.776507174585692163E-16, -1.000000000000000000 ) ) ;
#80 = APPROVAL ( #135, 'UNSPECIFIED' ) ;
#81 =( NAMED_UNIT ( * ) PLANE_ANGLE_UNIT ( ) SI_UNIT ( $, .RADIAN. ) );
#82 =( LENGTH_UNIT ( ) NAMED_UNIT ( * ) SI_UNIT ( .MILLI., .METRE. ) );
#83 = DIRECTION ( 'NONE',  ( 0.000000000000000000, 0.000000000000000000, 1.000000000000000000 ) ) ;
#84 = CLOSED_SHELL ( 'NONE', ( #20, #104, #51, #116 ) ) ;
#85 = AXIS2_PLACEMENT_3D ( 'NONE', #156, #37, #54 ) ;
#86 = PERSON_AND_ORGANIZATION_ROLE ( 'creator' ) ;
#87 = CIRCLE ( 'NONE', #60, 6.349999999999999645 ) ;
#88 = PRODUCT_DEFINITION ( 'UNKNOWN', '', #48, #24 ) ;
#89 = MANIFOLD_SOLID_BREP ( 'Boss-Extrude1', #84 ) ;
#90 = LOCAL_TIME ( 15, 16, 8.000000000000000000, #126 ) ;
#91 = PLANE ( 'NONE',  #125 ) ;
#92 = CIRCLE ( 'NONE', #55, 6.349999999999999645 ) ;
#93 = PERSON_AND_ORGANIZATION_ROLE ( 'design_owner' ) ;
#94 = EDGE_LOOP ( 'NONE', ( #16, #155, #30, #136 ) ) ;
#95 = FACE_OUTER_BOUND ( 'NONE', #44, .T. ) ;
#96 = EDGE_CURVE ( 'NONE', #127, #50, #58, .T. ) ;
#97 = ORIENTED_EDGE ( 'NONE', *, *, #96, .F. ) ;
#98 = APPROVAL_PERSON_ORGANIZATION ( #6, #139, #57 ) ;
#99 = APPROVAL_PERSON_ORGANIZATION ( #35, #4, #43 ) ;
#100 = DIRECTION ( 'NONE',  ( 1.000000000000000000, 0.000000000000000000, 0.000000000000000000 ) ) ;
#101 = CC_DESIGN_PERSON_AND_ORGANIZATION_ASSIGNMENT ( #149, #26, ( #48 ) ) ;
#102 =( NAMED_UNIT ( * ) SI_UNIT ( $, .STERADIAN. ) SOLID_ANGLE_UNIT ( ) );
#103 = DIRECTION ( 'NONE',  ( 0.000000000000000000, 0.000000000000000000, 1.000000000000000000 ) ) ;
#104 = ADVANCED_FACE ( 'NONE', ( #95 ), #150, .T. ) ;
#105 = DIRECTION ( 'NONE',  ( 1.000000000000000000, 0.000000000000000000, 0.000000000000000000 ) ) ;
#106 = CARTESIAN_POINT ( 'NONE',  ( -6.349999999999999645, 0.000000000000000000, 1.000000000000000000 ) ) ;
#107 = ORIENTED_EDGE ( 'NONE', *, *, #141, .F. ) ;
#108 = CC_DESIGN_PERSON_AND_ORGANIZATION_ASSIGNMENT ( #59, #86, ( #88 ) ) ;
#109 = APPROVAL_STATUS ( 'not_yet_approved' ) ;
#110 = PERSON ( 'UNSPECIFIED', 'UNSPECIFIED', 'UNSPECIFIED', ('UNSPECIFIED'), ('UNSPECIFIED'), ('UNSPECIFIED') ) ;
#111 = APPROVAL_STATUS ( 'not_yet_approved' ) ;
#112 = LOCAL_TIME ( 15, 16, 8.000000000000000000, #77 ) ;
#113 = PRODUCT_RELATED_PRODUCT_CATEGORY ( 'detail', '', ( #38 ) ) ;
#114 = AXIS2_PLACEMENT_3D ( 'NONE', #65, #40, #119 ) ;
#115 = UNCERTAINTY_MEASURE_WITH_UNIT (LENGTH_MEASURE( 1.000000000000000082E-05 ), #82, 'distance_accuracy_value', 'NONE');
#116 = ADVANCED_FACE ( 'NONE', ( #138 ), #9, .F. ) ;
#117 = CARTESIAN_POINT ( 'NONE',  ( 0.000000000000000000, 0.000000000000000000, -1.000000000000000000 ) ) ;
#118 = CC_DESIGN_APPROVAL ( #139, ( #27 ) ) ;
#119 = DIRECTION ( 'NONE',  ( -1.000000000000000000, 0.000000000000000000, 0.000000000000000000 ) ) ;
#120 = CARTESIAN_POINT ( 'NONE',  ( 0.000000000000000000, 0.000000000000000000, 1.000000000000000000 ) ) ;
#121 = VECTOR ( 'NONE', #52, 1000.000000000000000 ) ;
#122 = CC_DESIGN_APPROVAL ( #4, ( #88 ) ) ;
#123 = LOCAL_TIME ( 15, 16, 8.000000000000000000, #68 ) ;
#124 = VERTEX_POINT ( 'NONE', #131 ) ;
#125 = AXIS2_PLACEMENT_3D ( 'NONE', #133, #83, #130 ) ;
#126 = COORDINATED_UNIVERSAL_TIME_OFFSET ( 5, 0, .BEHIND. ) ;
#127 = VERTEX_POINT ( 'NONE', #79 ) ;
#128 = APPROVAL_DATE_TIME ( #164, #4 ) ;
#129 = EDGE_CURVE ( 'NONE', #50, #127, #87, .T. ) ;
#130 = DIRECTION ( 'NONE',  ( 1.000000000000000000, 0.000000000000000000, -0.000000000000000000 ) ) ;
#131 = CARTESIAN_POINT ( 'NONE',  ( 6.349999999999999645, 7.776507174585692163E-16, 1.000000000000000000 ) ) ;
#132 = ORIENTED_EDGE ( 'NONE', *, *, #129, .F. ) ;
#133 = CARTESIAN_POINT ( 'NONE',  ( 0.000000000000000000, 0.000000000000000000, 1.000000000000000000 ) ) ;
#134 = EDGE_LOOP ( 'NONE', ( #63, #29 ) ) ;
#135 = APPROVAL_STATUS ( 'not_yet_approved' ) ;
#136 = ORIENTED_EDGE ( 'NONE', *, *, #42, .F. ) ;
#137 = CALENDAR_DATE ( 2021, 6, 10 ) ;
#138 = FACE_OUTER_BOUND ( 'NONE', #159, .T. ) ;
#139 = APPROVAL ( #109, 'UNSPECIFIED' ) ;
#140 = VERTEX_POINT ( 'NONE', #106 ) ;
#141 = EDGE_CURVE ( 'NONE', #140, #124, #19, .T. ) ;
#142 = CARTESIAN_POINT ( 'NONE',  ( -6.349999999999999645, 0.000000000000000000, 1.000000000000000000 ) ) ;
#143 = CARTESIAN_POINT ( 'NONE',  ( 6.349999999999999645, 7.776507174585692163E-16, 1.000000000000000000 ) ) ;
#144 = CC_DESIGN_PERSON_AND_ORGANIZATION_ASSIGNMENT ( #3, #2, ( #48 ) ) ;
#145 = CC_DESIGN_PERSON_AND_ORGANIZATION_ASSIGNMENT ( #41, #93, ( #38 ) ) ;
#146 = LINE ( 'NONE', #142, #17 ) ;
#147 = PERSON_AND_ORGANIZATION_ROLE ( 'classification_officer' ) ;
#148 = DATE_TIME_ROLE ( 'classification_date' ) ;
#149 = PERSON_AND_ORGANIZATION ( #110, #78 ) ;
#150 = CYLINDRICAL_SURFACE ( 'NONE', #114, 6.349999999999999645 ) ;
#151 = AXIS2_PLACEMENT_3D ( 'NONE', #11, #157, #12 ) ;
#152 = ORIENTED_EDGE ( 'NONE', *, *, #173, .F. ) ;
#153 = ORIENTED_EDGE ( 'NONE', *, *, #42, .T. ) ;
#154 = AXIS2_PLACEMENT_3D ( 'NONE', #170, #103, #172 ) ;
#155 = ORIENTED_EDGE ( 'NONE', *, *, #173, .T. ) ;
#156 = CARTESIAN_POINT ( 'NONE',  ( 0.000000000000000000, 0.000000000000000000, -1.000000000000000000 ) ) ;
#157 = DIRECTION ( 'NONE',  ( -0.000000000000000000, -0.000000000000000000, -1.000000000000000000 ) ) ;
#158 = DATE_AND_TIME ( #137, #112 ) ;
#159 = EDGE_LOOP ( 'NONE', ( #132, #97 ) ) ;
#160 = APPLICATION_PROTOCOL_DEFINITION ( 'international standard', 'config_control_design', 1994, #74 ) ;
#161 = APPROVAL_ROLE ( '' ) ;
#162 = FACE_OUTER_BOUND ( 'NONE', #134, .T. ) ;
#163 = CC_DESIGN_APPROVAL ( #80, ( #48 ) ) ;
#164 = DATE_AND_TIME ( #25, #70 ) ;
#165 = APPROVAL_DATE_TIME ( #61, #139 ) ;
#166 = SHAPE_DEFINITION_REPRESENTATION ( #73, #32 ) ;
#167 = LOCAL_TIME ( 15, 16, 8.000000000000000000, #14 ) ;
#168 = CARTESIAN_POINT ( 'NONE',  ( 0.000000000000000000, 0.000000000000000000, -1.000000000000000000 ) ) ;
#169 = DIRECTION ( 'NONE',  ( 1.000000000000000000, 0.000000000000000000, 0.000000000000000000 ) ) ;
#170 = CARTESIAN_POINT ( 'NONE',  ( 0.000000000000000000, 0.000000000000000000, 0.000000000000000000 ) ) ;
#171 = PERSON_AND_ORGANIZATION ( #110, #78 ) ;
#172 = DIRECTION ( 'NONE',  ( 1.000000000000000000, 0.000000000000000000, 0.000000000000000000 ) ) ;
#173 = EDGE_CURVE ( 'NONE', #124, #127, #47, .T. ) ;
#174 = AXIS2_PLACEMENT_3D ( 'NONE', #117, #36, #105 ) ;
#175 = CALENDAR_DATE ( 2021, 6, 10 ) ;
ENDSEC;
END-ISO-10303-21;
