ISO-10303-21;
HEADER;
FILE_DESCRIPTION (( 'STEP AP203' ),
    '1' );
FILE_NAME ('Web Model 43368_20798.step',
    '2022-03-16T14:21:58',
    ( '' ),
    ( '' ),
    'SwSTEP 2.0',
    'SolidWorks 2021',
    '' );
FILE_SCHEMA (( 'CONFIG_CONTROL_DESIGN' ));
ENDSEC;

DATA;
#1 = DATE_AND_TIME ( #128, #3 ) ;
#2 = CARTESIAN_POINT ( 'NONE',  ( 10.00000000000000000, 1.224646799147353256E-15, 1.000000000000000000 ) ) ;
#3 = LOCAL_TIME ( 10, 21, 58.00000000000000000, #118 ) ;
#4 =( NAMED_UNIT ( * ) SI_UNIT ( $, .STERADIAN. ) SOLID_ANGLE_UNIT ( ) );
#5 = APPLICATION_CONTEXT ( 'configuration controlled 3d designs of mechanical parts and assemblies' ) ;
#6 = PERSON_AND_ORGANIZATION ( #123, #62 ) ;
#7 = CLOSED_SHELL ( 'NONE', ( #57, #41, #170, #23 ) ) ;
#8 = MANIFOLD_SOLID_BREP ( 'Boss-Extrude1', #7 ) ;
#9 = EDGE_CURVE ( 'NONE', #156, #80, #11, .T. ) ;
#10 = CC_DESIGN_PERSON_AND_ORGANIZATION_ASSIGNMENT ( #68, #33, ( #44 ) ) ;
#11 = LINE ( 'NONE', #154, #39 ) ;
#12 = EDGE_CURVE ( 'NONE', #54, #80, #30, .T. ) ;
#13 = CARTESIAN_POINT ( 'NONE',  ( 0.000000000000000000, 0.000000000000000000, 0.000000000000000000 ) ) ;
#14 = CARTESIAN_POINT ( 'NONE',  ( 0.000000000000000000, 0.000000000000000000, 0.000000000000000000 ) ) ;
#15 = ADVANCED_BREP_SHAPE_REPRESENTATION ( 'Web Model 43368_20798', ( #8, #151 ), #112 ) ;
#16 = DIRECTION ( 'NONE',  ( 1.000000000000000000, 0.000000000000000000, -0.000000000000000000 ) ) ;
#17 = CARTESIAN_POINT ( 'NONE',  ( 0.000000000000000000, 0.000000000000000000, 1.000000000000000000 ) ) ;
#18 = CC_DESIGN_APPROVAL ( #115, ( #70 ) ) ;
#19 = DIRECTION ( 'NONE',  ( 0.000000000000000000, 0.000000000000000000, 1.000000000000000000 ) ) ;
#20 = PERSON_AND_ORGANIZATION ( #123, #62 ) ;
#21 = AXIS2_PLACEMENT_3D ( 'NONE', #175, #47, #160 ) ;
#22 = COORDINATED_UNIVERSAL_TIME_OFFSET ( 5, 0, .BEHIND. ) ;
#23 = ADVANCED_FACE ( 'NONE', ( #139 ), #125, .F. ) ;
#24 = CYLINDRICAL_SURFACE ( 'NONE', #174, 10.00000000000000000 ) ;
#25 = EDGE_LOOP ( 'NONE', ( #91, #90, #38, #58 ) ) ;
#26 = CC_DESIGN_PERSON_AND_ORGANIZATION_ASSIGNMENT ( #20, #99, ( #130 ) ) ;
#27 = ORIENTED_EDGE ( 'NONE', *, *, #163, .F. ) ;
#28 =( LENGTH_UNIT ( ) NAMED_UNIT ( * ) SI_UNIT ( .MILLI., .METRE. ) );
#29 = APPROVAL_ROLE ( '' ) ;
#30 = CIRCLE ( 'NONE', #109, 10.00000000000000000 ) ;
#31 = DIRECTION ( 'NONE',  ( -0.000000000000000000, -0.000000000000000000, -1.000000000000000000 ) ) ;
#32 = DIRECTION ( 'NONE',  ( -1.000000000000000000, 0.000000000000000000, 0.000000000000000000 ) ) ;
#33 = PERSON_AND_ORGANIZATION_ROLE ( 'creator' ) ;
#34 = LOCAL_TIME ( 10, 21, 58.00000000000000000, #22 ) ;
#35 = AXIS2_PLACEMENT_3D ( 'NONE', #14, #89, #173 ) ;
#36 = DATE_TIME_ROLE ( 'classification_date' ) ;
#37 = CALENDAR_DATE ( 2022, 16, 3 ) ;
#38 = ORIENTED_EDGE ( 'NONE', *, *, #9, .T. ) ;
#39 = VECTOR ( 'NONE', #138, 1000.000000000000000 ) ;
#40 = DIRECTION ( 'NONE',  ( 1.000000000000000000, 0.000000000000000000, 0.000000000000000000 ) ) ;
#41 = ADVANCED_FACE ( 'NONE', ( #153 ), #24, .T. ) ;
#42 = APPLICATION_CONTEXT ( 'configuration controlled 3d designs of mechanical parts and assemblies' ) ;
#43 = CARTESIAN_POINT ( 'NONE',  ( 10.00000000000000000, 1.224646799147353256E-15, 1.000000000000000000 ) ) ;
#44 = PRODUCT_DEFINITION ( 'UNKNOWN', '', #70, #158 ) ;
#45 = PERSON_AND_ORGANIZATION ( #123, #62 ) ;
#46 = APPROVAL ( #86, 'UNSPECIFIED' ) ;
#47 = DIRECTION ( 'NONE',  ( 0.000000000000000000, 0.000000000000000000, 1.000000000000000000 ) ) ;
#48 = CARTESIAN_POINT ( 'NONE',  ( 0.000000000000000000, 0.000000000000000000, 1.000000000000000000 ) ) ;
#49 = COORDINATED_UNIVERSAL_TIME_OFFSET ( 5, 0, .BEHIND. ) ;
#50 = PERSON_AND_ORGANIZATION ( #123, #62 ) ;
#51 = LOCAL_TIME ( 10, 21, 58.00000000000000000, #104 ) ;
#52 = DATE_TIME_ROLE ( 'creation_date' ) ;
#53 = ORIENTED_EDGE ( 'NONE', *, *, #105, .F. ) ;
#54 = VERTEX_POINT ( 'NONE', #93 ) ;
#55 = APPROVAL_PERSON_ORGANIZATION ( #84, #46, #65 ) ;
#56 = UNCERTAINTY_MEASURE_WITH_UNIT (LENGTH_MEASURE( 1.000000000000000082E-05 ), #28, 'distance_accuracy_value', 'NONE');
#57 = ADVANCED_FACE ( 'NONE', ( #161 ), #107, .T. ) ;
#58 = ORIENTED_EDGE ( 'NONE', *, *, #163, .T. ) ;
#59 = PRODUCT ( 'Web Model 43368_20798', 'Web Model 43368_20798', '', ( #162 ) ) ;
#60 = DIRECTION ( 'NONE',  ( -1.000000000000000000, 0.000000000000000000, 0.000000000000000000 ) ) ;
#61 = DIRECTION ( 'NONE',  ( -0.000000000000000000, -0.000000000000000000, -1.000000000000000000 ) ) ;
#62 = ORGANIZATION ( 'UNSPECIFIED', 'UNSPECIFIED', '' ) ;
#63 = CC_DESIGN_PERSON_AND_ORGANIZATION_ASSIGNMENT ( #6, #164, ( #70 ) ) ;
#64 = CC_DESIGN_APPROVAL ( #143, ( #44 ) ) ;
#65 = APPROVAL_ROLE ( '' ) ;
#66 = CARTESIAN_POINT ( 'NONE',  ( 0.000000000000000000, 0.000000000000000000, 1.000000000000000000 ) ) ;
#67 = CIRCLE ( 'NONE', #88, 10.00000000000000000 ) ;
#68 = PERSON_AND_ORGANIZATION ( #123, #62 ) ;
#69 = EDGE_CURVE ( 'NONE', #156, #122, #76, .T. ) ;
#70 = PRODUCT_DEFINITION_FORMATION_WITH_SPECIFIED_SOURCE ( 'ANY', '', #59, .NOT_KNOWN. ) ;
#71 = CARTESIAN_POINT ( 'NONE',  ( 0.000000000000000000, 0.000000000000000000, 0.000000000000000000 ) ) ;
#72 = FACE_OUTER_BOUND ( 'NONE', #77, .T. ) ;
#73 = CC_DESIGN_PERSON_AND_ORGANIZATION_ASSIGNMENT ( #45, #141, ( #59 ) ) ;
#74 = PERSON_AND_ORGANIZATION ( #123, #62 ) ;
#75 = LOCAL_TIME ( 10, 21, 58.00000000000000000, #111 ) ;
#76 = CIRCLE ( 'NONE', #100, 10.00000000000000000 ) ;
#77 = EDGE_LOOP ( 'NONE', ( #106, #124 ) ) ;
#78 = ORIENTED_EDGE ( 'NONE', *, *, #12, .F. ) ;
#79 = APPROVAL_PERSON_ORGANIZATION ( #126, #143, #29 ) ;
#80 = VERTEX_POINT ( 'NONE', #82 ) ;
#81 = APPLICATION_PROTOCOL_DEFINITION ( 'international standard', 'config_control_design', 1994, #5 ) ;
#82 = CARTESIAN_POINT ( 'NONE',  ( -10.00000000000000000, 0.000000000000000000, 0.000000000000000000 ) ) ;
#83 = CALENDAR_DATE ( 2022, 16, 3 ) ;
#84 = PERSON_AND_ORGANIZATION ( #123, #62 ) ;
#85 = CC_DESIGN_PERSON_AND_ORGANIZATION_ASSIGNMENT ( #50, #101, ( #70 ) ) ;
#86 = APPROVAL_STATUS ( 'not_yet_approved' ) ;
#87 = APPROVAL_DATE_TIME ( #146, #115 ) ;
#88 = AXIS2_PLACEMENT_3D ( 'NONE', #71, #127, #140 ) ;
#89 = DIRECTION ( 'NONE',  ( 0.000000000000000000, 0.000000000000000000, 1.000000000000000000 ) ) ;
#90 = ORIENTED_EDGE ( 'NONE', *, *, #69, .F. ) ;
#91 = ORIENTED_EDGE ( 'NONE', *, *, #102, .F. ) ;
#92 = DIRECTION ( 'NONE',  ( 0.000000000000000000, 0.000000000000000000, 1.000000000000000000 ) ) ;
#93 = CARTESIAN_POINT ( 'NONE',  ( 10.00000000000000000, 1.224646799147353256E-15, 0.000000000000000000 ) ) ;
#94 = APPROVAL_STATUS ( 'not_yet_approved' ) ;
#95 = AXIS2_PLACEMENT_3D ( 'NONE', #48, #61, #32 ) ;
#96 = APPROVAL_DATE_TIME ( #1, #143 ) ;
#97 = CARTESIAN_POINT ( 'NONE',  ( -10.00000000000000000, 0.000000000000000000, 1.000000000000000000 ) ) ;
#98 = PLANE ( 'NONE',  #113 ) ;
#99 = PERSON_AND_ORGANIZATION_ROLE ( 'classification_officer' ) ;
#100 = AXIS2_PLACEMENT_3D ( 'NONE', #17, #108, #142 ) ;
#101 = PERSON_AND_ORGANIZATION_ROLE ( 'creator' ) ;
#102 = EDGE_CURVE ( 'NONE', #122, #54, #110, .T. ) ;
#103 = DATE_AND_TIME ( #37, #155 ) ;
#104 = COORDINATED_UNIVERSAL_TIME_OFFSET ( 5, 0, .BEHIND. ) ;
#105 = EDGE_CURVE ( 'NONE', #122, #156, #137, .T. ) ;
#106 = ORIENTED_EDGE ( 'NONE', *, *, #69, .T. ) ;
#107 = CYLINDRICAL_SURFACE ( 'NONE', #95, 10.00000000000000000 ) ;
#108 = DIRECTION ( 'NONE',  ( 0.000000000000000000, 0.000000000000000000, 1.000000000000000000 ) ) ;
#109 = AXIS2_PLACEMENT_3D ( 'NONE', #13, #92, #40 ) ;
#110 = LINE ( 'NONE', #2, #131 ) ;
#111 = COORDINATED_UNIVERSAL_TIME_OFFSET ( 5, 0, .BEHIND. ) ;
#112 =( GEOMETRIC_REPRESENTATION_CONTEXT ( 3 ) GLOBAL_UNCERTAINTY_ASSIGNED_CONTEXT ( ( #56 ) ) GLOBAL_UNIT_ASSIGNED_CONTEXT ( ( #28, #129, #4 ) ) REPRESENTATION_CONTEXT ( 'NONE', 'WORKASPACE' ) );
#113 = AXIS2_PLACEMENT_3D ( 'NONE', #119, #144, #16 ) ;
#114 = EDGE_LOOP ( 'NONE', ( #53, #157, #116, #172 ) ) ;
#115 = APPROVAL ( #133, 'UNSPECIFIED' ) ;
#116 = ORIENTED_EDGE ( 'NONE', *, *, #12, .T. ) ;
#117 = CC_DESIGN_APPROVAL ( #46, ( #130 ) ) ;
#118 = COORDINATED_UNIVERSAL_TIME_OFFSET ( 5, 0, .BEHIND. ) ;
#119 = CARTESIAN_POINT ( 'NONE',  ( 0.000000000000000000, 0.000000000000000000, 1.000000000000000000 ) ) ;
#120 = DIRECTION ( 'NONE',  ( 1.000000000000000000, 0.000000000000000000, 0.000000000000000000 ) ) ;
#121 = APPROVAL_DATE_TIME ( #152, #46 ) ;
#122 = VERTEX_POINT ( 'NONE', #43 ) ;
#123 = PERSON ( 'UNSPECIFIED', 'UNSPECIFIED', 'UNSPECIFIED', ('UNSPECIFIED'), ('UNSPECIFIED'), ('UNSPECIFIED') ) ;
#124 = ORIENTED_EDGE ( 'NONE', *, *, #105, .T. ) ;
#125 = PLANE ( 'NONE',  #35 ) ;
#126 = PERSON_AND_ORGANIZATION ( #123, #62 ) ;
#127 = DIRECTION ( 'NONE',  ( 0.000000000000000000, 0.000000000000000000, 1.000000000000000000 ) ) ;
#128 = CALENDAR_DATE ( 2022, 16, 3 ) ;
#129 =( NAMED_UNIT ( * ) PLANE_ANGLE_UNIT ( ) SI_UNIT ( $, .RADIAN. ) );
#130 = SECURITY_CLASSIFICATION ( '', '', #150 ) ;
#131 = VECTOR ( 'NONE', #159, 1000.000000000000000 ) ;
#132 = CARTESIAN_POINT ( 'NONE',  ( 0.000000000000000000, 0.000000000000000000, 0.000000000000000000 ) ) ;
#133 = APPROVAL_STATUS ( 'not_yet_approved' ) ;
#134 = APPROVAL_PERSON_ORGANIZATION ( #74, #115, #166 ) ;
#135 = DATE_AND_TIME ( #148, #51 ) ;
#136 = SHAPE_DEFINITION_REPRESENTATION ( #169, #15 ) ;
#137 = CIRCLE ( 'NONE', #21, 10.00000000000000000 ) ;
#138 = DIRECTION ( 'NONE',  ( -0.000000000000000000, -0.000000000000000000, -1.000000000000000000 ) ) ;
#139 = FACE_OUTER_BOUND ( 'NONE', #171, .T. ) ;
#140 = DIRECTION ( 'NONE',  ( 1.000000000000000000, 0.000000000000000000, 0.000000000000000000 ) ) ;
#141 = PERSON_AND_ORGANIZATION_ROLE ( 'design_owner' ) ;
#142 = DIRECTION ( 'NONE',  ( 1.000000000000000000, 0.000000000000000000, 0.000000000000000000 ) ) ;
#143 = APPROVAL ( #94, 'UNSPECIFIED' ) ;
#144 = DIRECTION ( 'NONE',  ( 0.000000000000000000, 0.000000000000000000, 1.000000000000000000 ) ) ;
#145 = APPLICATION_PROTOCOL_DEFINITION ( 'international standard', 'config_control_design', 1994, #42 ) ;
#146 = DATE_AND_TIME ( #168, #34 ) ;
#147 = CC_DESIGN_DATE_AND_TIME_ASSIGNMENT ( #103, #52, ( #44 ) ) ;
#148 = CALENDAR_DATE ( 2022, 16, 3 ) ;
#149 = PRODUCT_RELATED_PRODUCT_CATEGORY ( 'detail', '', ( #59 ) ) ;
#150 = SECURITY_CLASSIFICATION_LEVEL ( 'unclassified' ) ;
#151 = AXIS2_PLACEMENT_3D ( 'NONE', #132, #19, #120 ) ;
#152 = DATE_AND_TIME ( #83, #75 ) ;
#153 = FACE_OUTER_BOUND ( 'NONE', #25, .T. ) ;
#154 = CARTESIAN_POINT ( 'NONE',  ( -10.00000000000000000, 0.000000000000000000, 1.000000000000000000 ) ) ;
#155 = LOCAL_TIME ( 10, 21, 58.00000000000000000, #49 ) ;
#156 = VERTEX_POINT ( 'NONE', #97 ) ;
#157 = ORIENTED_EDGE ( 'NONE', *, *, #102, .T. ) ;
#158 = DESIGN_CONTEXT ( 'detailed design', #5, 'design' ) ;
#159 = DIRECTION ( 'NONE',  ( -0.000000000000000000, -0.000000000000000000, -1.000000000000000000 ) ) ;
#160 = DIRECTION ( 'NONE',  ( 1.000000000000000000, 0.000000000000000000, 0.000000000000000000 ) ) ;
#161 = FACE_OUTER_BOUND ( 'NONE', #114, .T. ) ;
#162 = MECHANICAL_CONTEXT ( 'NONE', #42, 'mechanical' ) ;
#163 = EDGE_CURVE ( 'NONE', #80, #54, #67, .T. ) ;
#164 = PERSON_AND_ORGANIZATION_ROLE ( 'design_supplier' ) ;
#165 = CC_DESIGN_SECURITY_CLASSIFICATION ( #130, ( #70 ) ) ;
#166 = APPROVAL_ROLE ( '' ) ;
#167 = CC_DESIGN_DATE_AND_TIME_ASSIGNMENT ( #135, #36, ( #130 ) ) ;
#168 = CALENDAR_DATE ( 2022, 16, 3 ) ;
#169 = PRODUCT_DEFINITION_SHAPE ( 'NONE', 'NONE',  #44 ) ;
#170 = ADVANCED_FACE ( 'NONE', ( #72 ), #98, .T. ) ;
#171 = EDGE_LOOP ( 'NONE', ( #27, #78 ) ) ;
#172 = ORIENTED_EDGE ( 'NONE', *, *, #9, .F. ) ;
#173 = DIRECTION ( 'NONE',  ( 1.000000000000000000, 0.000000000000000000, -0.000000000000000000 ) ) ;
#174 = AXIS2_PLACEMENT_3D ( 'NONE', #66, #31, #60 ) ;
#175 = CARTESIAN_POINT ( 'NONE',  ( 0.000000000000000000, 0.000000000000000000, 1.000000000000000000 ) ) ;
ENDSEC;
END-ISO-10303-21;
