ISO-10303-21;
HEADER;
FILE_DESCRIPTION (( 'STEP AP203' ),
    '1' );
FILE_NAME ('Web Model 46704.STEP',
    '2017-01-31T15:19:45',
    ( '' ),
    ( '' ),
    'SwSTEP 2.0',
    'SolidWorks 2016',
    '' );
FILE_SCHEMA (( 'CONFIG_CONTROL_DESIGN' ));
ENDSEC;

DATA;
#1 = VERTEX_POINT ( 'NONE', #163 ) ;
#2 = VECTOR ( 'NONE', #83, 1000.000000000000000 ) ;
#3 = CALENDAR_DATE ( 2017, 31, 1 ) ;
#4 = EDGE_LOOP ( 'NONE', ( #132, #119, #34, #210 ) ) ;
#5 = VECTOR ( 'NONE', #222, 1000.000000000000000 ) ;
#6 = LOCAL_TIME ( 10, 19, 45.00000000000000000, #59 ) ;
#7 = EDGE_CURVE ( 'NONE', #140, #136, #141, .T. ) ;
#8 = FACE_OUTER_BOUND ( 'NONE', #93, .T. ) ;
#9 = CARTESIAN_POINT ( 'NONE',  ( 12.50000000000000400, -19.00000000000000400, 1.500000000000000000 ) ) ;
#10 = ORIENTED_EDGE ( 'NONE', *, *, #236, .F. ) ;
#11 = CARTESIAN_POINT ( 'NONE',  ( -12.49999999999999600, -19.00000000000000400, 1.500000000000000000 ) ) ;
#12 = AXIS2_PLACEMENT_3D ( 'NONE', #207, #94, #223 ) ;
#13 = PLANE ( 'NONE',  #177 ) ;
#14 = VERTEX_POINT ( 'NONE', #150 ) ;
#15 = VECTOR ( 'NONE', #91, 1000.000000000000000 ) ;
#16 = PERSON_AND_ORGANIZATION_ROLE ( 'creator' ) ;
#17 = CARTESIAN_POINT ( 'NONE',  ( 0.0000000000000000000, 0.0000000000000000000, 0.0000000000000000000 ) ) ;
#18 = PERSON_AND_ORGANIZATION_ROLE ( 'creator' ) ;
#19 = MANIFOLD_SOLID_BREP ( 'Extrude1', #128 ) ;
#20 = CC_DESIGN_DATE_AND_TIME_ASSIGNMENT ( #176, #193, ( #175 ) ) ;
#21 = VERTEX_POINT ( 'NONE', #44 ) ;
#22 = LINE ( 'NONE', #25, #211 ) ;
#23 = CARTESIAN_POINT ( 'NONE',  ( -12.50000000000000000, 18.99999999999999600, 1.500000000000000000 ) ) ;
#24 = ORIENTED_EDGE ( 'NONE', *, *, #215, .F. ) ;
#25 = CARTESIAN_POINT ( 'NONE',  ( -12.50000000000000000, 18.99999999999999600, 0.0000000000000000000 ) ) ;
#26 = CARTESIAN_POINT ( 'NONE',  ( -12.49999999999999600, -19.00000000000000400, 0.0000000000000000000 ) ) ;
#27 = LINE ( 'NONE', #28, #197 ) ;
#28 = CARTESIAN_POINT ( 'NONE',  ( -12.49999999999999600, -19.00000000000000400, 1.500000000000000000 ) ) ;
#29 = DIRECTION ( 'NONE',  ( -1.369518533665900300E-016, 1.000000000000000000, -0.0000000000000000000 ) ) ;
#30 = ADVANCED_FACE ( 'NONE', ( #8 ), #112, .F. ) ;
#31 = AXIS2_PLACEMENT_3D ( 'NONE', #185, #125, #183 ) ;
#32 = EDGE_LOOP ( 'NONE', ( #181, #72, #206, #235 ) ) ;
#33 = LINE ( 'NONE', #167, #120 ) ;
#34 = ORIENTED_EDGE ( 'NONE', *, *, #90, .T. ) ;
#35 = COORDINATED_UNIVERSAL_TIME_OFFSET ( 5, 0, .BEHIND. ) ;
#36 = AXIS2_PLACEMENT_3D ( 'NONE', #127, #164, #148 ) ;
#37 = VECTOR ( 'NONE', #154, 1000.000000000000000 ) ;
#38 = ORIENTED_EDGE ( 'NONE', *, *, #187, .F. ) ;
#39 = FACE_OUTER_BOUND ( 'NONE', #4, .T. ) ;
#40 = EDGE_LOOP ( 'NONE', ( #224, #56, #201, #216 ) ) ;
#41 = VECTOR ( 'NONE', #45, 1000.000000000000000 ) ;
#42 = LOCAL_TIME ( 10, 19, 45.00000000000000000, #54 ) ;
#43 = CARTESIAN_POINT ( 'NONE',  ( -12.49999999999999600, -19.00000000000000400, 0.0000000000000000000 ) ) ;
#44 = CARTESIAN_POINT ( 'NONE',  ( 12.49999999999999800, 18.99999999999999600, 0.0000000000000000000 ) ) ;
#45 = DIRECTION ( 'NONE',  ( 9.130123557772669600E-017, -1.000000000000000000, 0.0000000000000000000 ) ) ;
#46 = FACE_OUTER_BOUND ( 'NONE', #139, .T. ) ;
#47 = APPROVAL_DATE_TIME ( #220, #229 ) ;
#48 = PERSON_AND_ORGANIZATION_ROLE ( 'classification_officer' ) ;
#49 = CARTESIAN_POINT ( 'NONE',  ( -12.50000000000000000, 18.99999999999999600, 1.500000000000000000 ) ) ;
#50 = DIRECTION ( 'NONE',  ( -1.000000000000000000, -0.0000000000000000000, -0.0000000000000000000 ) ) ;
#51 = LINE ( 'NONE', #114, #2 ) ;
#52 = ADVANCED_FACE ( 'NONE', ( #133 ), #61, .F. ) ;
#53 = DATE_TIME_ROLE ( 'classification_date' ) ;
#54 = COORDINATED_UNIVERSAL_TIME_OFFSET ( 5, 0, .BEHIND. ) ;
#55 = APPLICATION_CONTEXT ( 'configuration controlled 3d designs of mechanical parts and assemblies' ) ;
#56 = ORIENTED_EDGE ( 'NONE', *, *, #7, .F. ) ;
#57 = FACE_OUTER_BOUND ( 'NONE', #32, .T. ) ;
#58 = CC_DESIGN_APPROVAL ( #97, ( #159 ) ) ;
#59 = COORDINATED_UNIVERSAL_TIME_OFFSET ( 5, 0, .BEHIND. ) ;
#60 = LOCAL_TIME ( 10, 19, 45.00000000000000000, #173 ) ;
#61 = PLANE ( 'NONE',  #80 ) ;
#62 = PLANE ( 'NONE',  #31 ) ;
#63 = VERTEX_POINT ( 'NONE', #110 ) ;
#64 = PLANE ( 'NONE',  #108 ) ;
#65 = ORIENTED_EDGE ( 'NONE', *, *, #236, .T. ) ;
#66 = LINE ( 'NONE', #11, #184 ) ;
#67 = APPLICATION_PROTOCOL_DEFINITION ( 'international standard', 'config_control_design', 1994, #55 ) ;
#68 = APPROVAL ( #98, 'UNSPECIFIED' ) ;
#69 = DIRECTION ( 'NONE',  ( -9.130123557772669600E-017, 1.000000000000000000, 0.0000000000000000000 ) ) ;
#70 = DIRECTION ( 'NONE',  ( 0.0000000000000000000, 0.0000000000000000000, 1.000000000000000000 ) ) ;
#71 = VERTEX_POINT ( 'NONE', #205 ) ;
#72 = ORIENTED_EDGE ( 'NONE', *, *, #160, .F. ) ;
#73 = CC_DESIGN_PERSON_AND_ORGANIZATION_ASSIGNMENT ( #89, #230, ( #117 ) ) ;
#74 = EDGE_LOOP ( 'NONE', ( #155, #10, #24, #179 ) ) ;
#75 = CC_DESIGN_APPROVAL ( #68, ( #204 ) ) ;
#76 = DIRECTION ( 'NONE',  ( 1.000000000000000000, 0.0000000000000000000, 0.0000000000000000000 ) ) ;
#77 = VECTOR ( 'NONE', #29, 1000.000000000000000 ) ;
#78 = PERSON_AND_ORGANIZATION ( #194, #190 ) ;
#79 = PLANE ( 'NONE',  #12 ) ;
#80 = AXIS2_PLACEMENT_3D ( 'NONE', #111, #126, #145 ) ;
#81 = LINE ( 'NONE', #225, #41 ) ;
#82 = CALENDAR_DATE ( 2017, 31, 1 ) ;
#83 = DIRECTION ( 'NONE',  ( -0.0000000000000000000, -0.0000000000000000000, -1.000000000000000000 ) ) ;
#84 = UNCERTAINTY_MEASURE_WITH_UNIT (LENGTH_MEASURE( 1.000000000000000100E-005 ), #131, 'distance_accuracy_value', 'NONE');
#85 = DIRECTION ( 'NONE',  ( 1.000000000000000000, 0.0000000000000000000, 0.0000000000000000000 ) ) ;
#86 = APPROVAL_ROLE ( '' ) ;
#87 = ORIENTED_EDGE ( 'NONE', *, *, #208, .T. ) ;
#88 = EDGE_CURVE ( 'NONE', #63, #140, #22, .T. ) ;
#89 = PERSON_AND_ORGANIZATION ( #194, #190 ) ;
#90 = EDGE_CURVE ( 'NONE', #156, #14, #81, .T. ) ;
#91 = DIRECTION ( 'NONE',  ( -1.000000000000000000, -0.0000000000000000000, -0.0000000000000000000 ) ) ;
#92 = CARTESIAN_POINT ( 'NONE',  ( 12.50000000000000400, -19.00000000000000400, 0.0000000000000000000 ) ) ;
#93 = EDGE_LOOP ( 'NONE', ( #87, #103, #146, #106 ) ) ;
#94 = DIRECTION ( 'NONE',  ( -0.0000000000000000000, 0.0000000000000000000, 1.000000000000000000 ) ) ;
#95 = DATE_AND_TIME ( #82, #237 ) ;
#96 = CARTESIAN_POINT ( 'NONE',  ( -12.50000000000000000, 18.99999999999999600, 1.500000000000000000 ) ) ;
#97 = APPROVAL ( #171, 'UNSPECIFIED' ) ;
#98 = APPROVAL_STATUS ( 'not_yet_approved' ) ;
#99 = DIRECTION ( 'NONE',  ( 1.000000000000000000, 9.130123557772669600E-017, -0.0000000000000000000 ) ) ;
#100 = CARTESIAN_POINT ( 'NONE',  ( -12.50000000000000000, 18.99999999999999600, 0.0000000000000000000 ) ) ;
#101 =( NAMED_UNIT ( * ) PLANE_ANGLE_UNIT ( ) SI_UNIT ( $, .RADIAN. ) );
#102 = ADVANCED_FACE ( 'NONE', ( #39 ), #64, .T. ) ;
#103 = ORIENTED_EDGE ( 'NONE', *, *, #178, .F. ) ;
#104 = VECTOR ( 'NONE', #192, 1000.000000000000000 ) ;
#105 = CALENDAR_DATE ( 2017, 31, 1 ) ;
#106 = ORIENTED_EDGE ( 'NONE', *, *, #228, .T. ) ;
#107 = VECTOR ( 'NONE', #50, 1000.000000000000000 ) ;
#108 = AXIS2_PLACEMENT_3D ( 'NONE', #9, #182, #76 ) ;
#109 = CC_DESIGN_PERSON_AND_ORGANIZATION_ASSIGNMENT ( #78, #18, ( #204 ) ) ;
#110 = CARTESIAN_POINT ( 'NONE',  ( -12.50000000000000000, 18.99999999999999600, 0.0000000000000000000 ) ) ;
#111 = CARTESIAN_POINT ( 'NONE',  ( -12.49999999999999600, -19.00000000000000400, 1.500000000000000000 ) ) ;
#112 = PLANE ( 'NONE',  #36 ) ;
#113 = LINE ( 'NONE', #100, #107 ) ;
#114 = CARTESIAN_POINT ( 'NONE',  ( 12.49999999999999800, 18.99999999999999600, 1.500000000000000000 ) ) ;
#115 = CARTESIAN_POINT ( 'NONE',  ( 12.49999999999999800, 18.99999999999999600, 1.500000000000000000 ) ) ;
#116 = ADVANCED_FACE ( 'NONE', ( #46 ), #62, .F. ) ;
#117 = PRODUCT ( 'Web Model 46704', 'Web Model 46704', '', ( #188 ) ) ;
#118 = EDGE_CURVE ( 'NONE', #1, #156, #161, .T. ) ;
#119 = ORIENTED_EDGE ( 'NONE', *, *, #118, .T. ) ;
#120 = VECTOR ( 'NONE', #227, 1000.000000000000000 ) ;
#121 = APPROVAL_DATE_TIME ( #166, #97 ) ;
#122 = COORDINATED_UNIVERSAL_TIME_OFFSET ( 5, 0, .BEHIND. ) ;
#123 = ORIENTED_EDGE ( 'NONE', *, *, #228, .F. ) ;
#124 = APPROVAL_PERSON_ORGANIZATION ( #142, #229, #135 ) ;
#125 = DIRECTION ( 'NONE',  ( -1.000000000000000000, -1.369518533665900100E-016, 0.0000000000000000000 ) ) ;
#126 = DIRECTION ( 'NONE',  ( 0.0000000000000000000, 1.000000000000000000, 0.0000000000000000000 ) ) ;
#127 = CARTESIAN_POINT ( 'NONE',  ( -12.50000000000000000, 18.99999999999999600, 1.500000000000000000 ) ) ;
#128 = CLOSED_SHELL ( 'NONE', ( #116, #30, #191, #52, #102, #149 ) ) ;
#129 = LINE ( 'NONE', #209, #37 ) ;
#130 = DIRECTION ( 'NONE',  ( 1.000000000000000000, 0.0000000000000000000, 0.0000000000000000000 ) ) ;
#131 =( LENGTH_UNIT ( ) NAMED_UNIT ( * ) SI_UNIT ( .MILLI., .METRE. ) );
#132 = ORIENTED_EDGE ( 'NONE', *, *, #187, .T. ) ;
#133 = FACE_OUTER_BOUND ( 'NONE', #74, .T. ) ;
#134 = CC_DESIGN_PERSON_AND_ORGANIZATION_ASSIGNMENT ( #186, #231, ( #204 ) ) ;
#135 = APPROVAL_ROLE ( '' ) ;
#136 = VERTEX_POINT ( 'NONE', #92 ) ;
#137 = CALENDAR_DATE ( 2017, 31, 1 ) ;
#138 = AXIS2_PLACEMENT_3D ( 'NONE', #17, #70, #130 ) ;
#139 = EDGE_LOOP ( 'NONE', ( #196, #123, #38, #65 ) ) ;
#140 = VERTEX_POINT ( 'NONE', #43 ) ;
#141 = LINE ( 'NONE', #26, #5 ) ;
#142 = PERSON_AND_ORGANIZATION ( #194, #190 ) ;
#143 = APPROVAL_PERSON_ORGANIZATION ( #174, #68, #233 ) ;
#144 = CC_DESIGN_SECURITY_CLASSIFICATION ( #159, ( #204 ) ) ;
#145 = DIRECTION ( 'NONE',  ( 0.0000000000000000000, -0.0000000000000000000, 1.000000000000000000 ) ) ;
#146 = ORIENTED_EDGE ( 'NONE', *, *, #118, .F. ) ;
#147 = DIRECTION ( 'NONE',  ( 9.130123557772669600E-017, -1.000000000000000000, 0.0000000000000000000 ) ) ;
#148 = DIRECTION ( 'NONE',  ( 0.0000000000000000000, -0.0000000000000000000, -1.000000000000000000 ) ) ;
#149 = ADVANCED_FACE ( 'NONE', ( #217 ), #79, .F. ) ;
#150 = CARTESIAN_POINT ( 'NONE',  ( -12.49999999999999600, -19.00000000000000400, 1.500000000000000000 ) ) ;
#151 = APPLICATION_CONTEXT ( 'configuration controlled 3d designs of mechanical parts and assemblies' ) ;
#152 = PERSON_AND_ORGANIZATION ( #194, #190 ) ;
#153 = APPLICATION_PROTOCOL_DEFINITION ( 'international standard', 'config_control_design', 1994, #151 ) ;
#154 = DIRECTION ( 'NONE',  ( -1.369518533665900300E-016, 1.000000000000000000, -0.0000000000000000000 ) ) ;
#155 = ORIENTED_EDGE ( 'NONE', *, *, #7, .T. ) ;
#156 = VERTEX_POINT ( 'NONE', #96 ) ;
#157 = APPROVAL_DATE_TIME ( #95, #68 ) ;
#158 = PRODUCT_DEFINITION_SHAPE ( 'NONE', 'NONE',  #175 ) ;
#159 = SECURITY_CLASSIFICATION ( '', '', #212 ) ;
#160 = EDGE_CURVE ( 'NONE', #14, #140, #66, .T. ) ;
#161 = LINE ( 'NONE', #23, #15 ) ;
#162 = DATE_AND_TIME ( #137, #6 ) ;
#163 = CARTESIAN_POINT ( 'NONE',  ( 12.49999999999999800, 18.99999999999999600, 1.500000000000000000 ) ) ;
#164 = DIRECTION ( 'NONE',  ( 0.0000000000000000000, -1.000000000000000000, 0.0000000000000000000 ) ) ;
#165 = DIRECTION ( 'NONE',  ( -0.0000000000000000000, -0.0000000000000000000, -1.000000000000000000 ) ) ;
#166 = DATE_AND_TIME ( #105, #218 ) ;
#167 = CARTESIAN_POINT ( 'NONE',  ( -12.50000000000000000, 18.99999999999999600, 1.500000000000000000 ) ) ;
#168 =( NAMED_UNIT ( * ) SI_UNIT ( $, .STERADIAN. ) SOLID_ANGLE_UNIT ( ) );
#169 = EDGE_CURVE ( 'NONE', #136, #21, #129, .T. ) ;
#170 = CC_DESIGN_DATE_AND_TIME_ASSIGNMENT ( #162, #53, ( #159 ) ) ;
#171 = APPROVAL_STATUS ( 'not_yet_approved' ) ;
#172 = CC_DESIGN_APPROVAL ( #229, ( #175 ) ) ;
#173 = COORDINATED_UNIVERSAL_TIME_OFFSET ( 5, 0, .BEHIND. ) ;
#174 = PERSON_AND_ORGANIZATION ( #194, #190 ) ;
#175 = PRODUCT_DEFINITION ( 'UNKNOWN', '', #204, #200 ) ;
#176 = DATE_AND_TIME ( #203, #60 ) ;
#177 = AXIS2_PLACEMENT_3D ( 'NONE', #49, #99, #69 ) ;
#178 = EDGE_CURVE ( 'NONE', #156, #63, #33, .T. ) ;
#179 = ORIENTED_EDGE ( 'NONE', *, *, #160, .T. ) ;
#180 = APPROVAL_PERSON_ORGANIZATION ( #226, #97, #86 ) ;
#181 = ORIENTED_EDGE ( 'NONE', *, *, #88, .T. ) ;
#182 = DIRECTION ( 'NONE',  ( -0.0000000000000000000, 0.0000000000000000000, 1.000000000000000000 ) ) ;
#183 = DIRECTION ( 'NONE',  ( 1.369518533665900100E-016, -1.000000000000000000, 0.0000000000000000000 ) ) ;
#184 = VECTOR ( 'NONE', #165, 1000.000000000000000 ) ;
#185 = CARTESIAN_POINT ( 'NONE',  ( 12.49999999999999800, 18.99999999999999600, 1.500000000000000000 ) ) ;
#186 = PERSON_AND_ORGANIZATION ( #194, #190 ) ;
#187 = EDGE_CURVE ( 'NONE', #71, #1, #219, .T. ) ;
#188 = MECHANICAL_CONTEXT ( 'NONE', #151, 'mechanical' ) ;
#189 = APPROVAL_STATUS ( 'not_yet_approved' ) ;
#190 = ORGANIZATION ( 'UNSPECIFIED', 'UNSPECIFIED', '' ) ;
#191 = ADVANCED_FACE ( 'NONE', ( #57 ), #13, .F. ) ;
#192 = DIRECTION ( 'NONE',  ( -0.0000000000000000000, -0.0000000000000000000, -1.000000000000000000 ) ) ;
#193 = DATE_TIME_ROLE ( 'creation_date' ) ;
#194 = PERSON ( 'UNSPECIFIED', 'UNSPECIFIED', 'UNSPECIFIED', ('UNSPECIFIED'), ('UNSPECIFIED'), ('UNSPECIFIED') ) ;
#195 = SHAPE_DEFINITION_REPRESENTATION ( #158, #221 ) ;
#196 = ORIENTED_EDGE ( 'NONE', *, *, #169, .T. ) ;
#197 = VECTOR ( 'NONE', #85, 1000.000000000000000 ) ;
#198 =( GEOMETRIC_REPRESENTATION_CONTEXT ( 3 ) GLOBAL_UNCERTAINTY_ASSIGNED_CONTEXT ( ( #84 ) ) GLOBAL_UNIT_ASSIGNED_CONTEXT ( ( #131, #101, #168 ) ) REPRESENTATION_CONTEXT ( 'NONE', 'WORKASPACE' ) );
#199 = CC_DESIGN_PERSON_AND_ORGANIZATION_ASSIGNMENT ( #232, #16, ( #175 ) ) ;
#200 = DESIGN_CONTEXT ( 'detailed design', #55, 'design' ) ;
#201 = ORIENTED_EDGE ( 'NONE', *, *, #88, .F. ) ;
#202 = LINE ( 'NONE', #214, #104 ) ;
#203 = CALENDAR_DATE ( 2017, 31, 1 ) ;
#204 = PRODUCT_DEFINITION_FORMATION_WITH_SPECIFIED_SOURCE ( 'ANY', '', #117, .NOT_KNOWN. ) ;
#205 = CARTESIAN_POINT ( 'NONE',  ( 12.50000000000000400, -19.00000000000000400, 1.500000000000000000 ) ) ;
#206 = ORIENTED_EDGE ( 'NONE', *, *, #90, .F. ) ;
#207 = CARTESIAN_POINT ( 'NONE',  ( 12.50000000000000400, -19.00000000000000400, 0.0000000000000000000 ) ) ;
#208 = EDGE_CURVE ( 'NONE', #21, #63, #113, .T. ) ;
#209 = CARTESIAN_POINT ( 'NONE',  ( 12.49999999999999800, 18.99999999999999600, 0.0000000000000000000 ) ) ;
#210 = ORIENTED_EDGE ( 'NONE', *, *, #215, .T. ) ;
#211 = VECTOR ( 'NONE', #147, 1000.000000000000000 ) ;
#212 = SECURITY_CLASSIFICATION_LEVEL ( 'unclassified' ) ;
#213 = CC_DESIGN_PERSON_AND_ORGANIZATION_ASSIGNMENT ( #152, #48, ( #159 ) ) ;
#214 = CARTESIAN_POINT ( 'NONE',  ( 12.50000000000000400, -19.00000000000000400, 1.500000000000000000 ) ) ;
#215 = EDGE_CURVE ( 'NONE', #14, #71, #27, .T. ) ;
#216 = ORIENTED_EDGE ( 'NONE', *, *, #208, .F. ) ;
#217 = FACE_OUTER_BOUND ( 'NONE', #40, .T. ) ;
#218 = LOCAL_TIME ( 10, 19, 45.00000000000000000, #35 ) ;
#219 = LINE ( 'NONE', #115, #77 ) ;
#220 = DATE_AND_TIME ( #3, #42 ) ;
#221 = ADVANCED_BREP_SHAPE_REPRESENTATION ( 'Web Model 46704', ( #19, #138 ), #198 ) ;
#222 = DIRECTION ( 'NONE',  ( 1.000000000000000000, 0.0000000000000000000, 0.0000000000000000000 ) ) ;
#223 = DIRECTION ( 'NONE',  ( 1.000000000000000000, 0.0000000000000000000, 0.0000000000000000000 ) ) ;
#224 = ORIENTED_EDGE ( 'NONE', *, *, #169, .F. ) ;
#225 = CARTESIAN_POINT ( 'NONE',  ( -12.50000000000000000, 18.99999999999999600, 1.500000000000000000 ) ) ;
#226 = PERSON_AND_ORGANIZATION ( #194, #190 ) ;
#227 = DIRECTION ( 'NONE',  ( -0.0000000000000000000, -0.0000000000000000000, -1.000000000000000000 ) ) ;
#228 = EDGE_CURVE ( 'NONE', #1, #21, #51, .T. ) ;
#229 = APPROVAL ( #189, 'UNSPECIFIED' ) ;
#230 = PERSON_AND_ORGANIZATION_ROLE ( 'design_owner' ) ;
#231 = PERSON_AND_ORGANIZATION_ROLE ( 'design_supplier' ) ;
#232 = PERSON_AND_ORGANIZATION ( #194, #190 ) ;
#233 = APPROVAL_ROLE ( '' ) ;
#234 = PRODUCT_RELATED_PRODUCT_CATEGORY ( 'detail', '', ( #117 ) ) ;
#235 = ORIENTED_EDGE ( 'NONE', *, *, #178, .T. ) ;
#236 = EDGE_CURVE ( 'NONE', #71, #136, #202, .T. ) ;
#237 = LOCAL_TIME ( 10, 19, 45.00000000000000000, #122 ) ;
ENDSEC;
END-ISO-10303-21;
