ISO-10303-21;
HEADER;
FILE_DESCRIPTION (( 'STEP AP214' ),
    '1' );
FILE_NAME ('3282-E0W.STEP',
    '2009-12-21T16:57:04',
    ( ' ' ),
    ( ' ' ),
    'SwSTEP 2.0',
    'SolidWorks 2009',
    '' );
FILE_SCHEMA (( 'AUTOMOTIVE_DESIGN' ));
ENDSEC;

DATA;
#1 =( NAMED_UNIT ( * ) PLANE_ANGLE_UNIT ( ) SI_UNIT ( $, .RADIAN. ) );
#2 = DIRECTION ( 'NONE',  ( -0.0000000000000000000, -0.0000000000000000000, 1.000000000000000000 ) ) ;
#3 = DIRECTION ( 'NONE',  ( 1.000000000000000000, 0.0000000000000000000, 0.0000000000000000000 ) ) ;
#4 = CARTESIAN_POINT ( 'NONE',  ( 0.0000000000000000000, 0.0000000000000000000, -6.606274810554420900 ) ) ;
#5 =( NAMED_UNIT ( * ) SI_UNIT ( $, .STERADIAN. ) SOLID_ANGLE_UNIT ( ) );
#6 =( GEOMETRIC_REPRESENTATION_CONTEXT ( 3 ) GLOBAL_UNCERTAINTY_ASSIGNED_CONTEXT ( ( #179 ) ) GLOBAL_UNIT_ASSIGNED_CONTEXT ( ( #169, #181, #180 ) ) REPRESENTATION_CONTEXT ( 'NONE', 'WORKASPACE' ) );
#7 = DIRECTION ( 'NONE',  ( 1.000000000000000000, 0.0000000000000000000, 0.0000000000000000000 ) ) ;
#8 = DIRECTION ( 'NONE',  ( -1.000000000000000000, 1.224606353822377300E-016, 0.0000000000000000000 ) ) ;
#9 = CIRCLE ( 'NONE', #10, 37.50000000000000000 ) ;
#10 = AXIS2_PLACEMENT_3D ( 'NONE', #13, #12, #7 ) ;
#11 = CARTESIAN_POINT ( 'NONE',  ( 0.0000000000000000000, 0.0000000000000000000, -41.90500000000000100 ) ) ;
#12 = DIRECTION ( 'NONE',  ( -0.0000000000000000000, -0.0000000000000000000, 1.000000000000000000 ) ) ;
#13 = CARTESIAN_POINT ( 'NONE',  ( 0.0000000000000000000, 0.0000000000000000000, -6.606274810554420900 ) ) ;
#14 = UNCERTAINTY_MEASURE_WITH_UNIT (LENGTH_MEASURE( 1.000000000000000100E-005 ), #151, 'distance_accuracy_value', 'NONE');
#15 = AXIS2_PLACEMENT_3D ( 'NONE', #11, #8, #17 ) ;
#16 = UNCERTAINTY_MEASURE_WITH_UNIT (LENGTH_MEASURE( 1.000000000000000100E-005 ), #122, 'distance_accuracy_value', 'NONE');
#17 = DIRECTION ( 'NONE',  ( -1.224606353822377300E-016, -1.000000000000000000, 0.0000000000000000000 ) ) ;
#18 = CIRCLE ( 'NONE', #15, 51.49999999999999300 ) ;
#19 =( GEOMETRIC_REPRESENTATION_CONTEXT ( 3 ) GLOBAL_UNCERTAINTY_ASSIGNED_CONTEXT ( ( #16 ) ) GLOBAL_UNIT_ASSIGNED_CONTEXT ( ( #122, #121, #120 ) ) REPRESENTATION_CONTEXT ( 'NONE', 'WORKASPACE' ) );
#20 =( GEOMETRIC_REPRESENTATION_CONTEXT ( 3 ) GLOBAL_UNCERTAINTY_ASSIGNED_CONTEXT ( ( #14 ) ) GLOBAL_UNIT_ASSIGNED_CONTEXT ( ( #151, #1, #5 ) ) REPRESENTATION_CONTEXT ( 'NONE', 'WORKASPACE' ) );
#21 = ORIENTED_EDGE ( 'NONE', *, *, #22, .F. ) ;
#22 = EDGE_CURVE ( 'NONE', #26, #53, #78, .T. ) ;
#23 = ADVANCED_FACE ( 'NONE', ( #79 ), #84, .F. ) ;
#24 = ORIENTED_EDGE ( 'NONE', *, *, #25, .T. ) ;
#25 = EDGE_CURVE ( 'NONE', #26, #27, #93, .T. ) ;
#26 = VERTEX_POINT ( 'NONE', #88 ) ;
#27 = VERTEX_POINT ( 'NONE', #87 ) ;
#28 = ORIENTED_EDGE ( 'NONE', *, *, #59, .F. ) ;
#29 = ORIENTED_EDGE ( 'NONE', *, *, #69, .T. ) ;
#30 = ORIENTED_EDGE ( 'NONE', *, *, #69, .F. ) ;
#31 = ORIENTED_EDGE ( 'NONE', *, *, #25, .F. ) ;
#32 = ORIENTED_EDGE ( 'NONE', *, *, #33, .T. ) ;
#33 = EDGE_CURVE ( 'NONE', #60, #34, #18, .T. ) ;
#34 = VERTEX_POINT ( 'NONE', #135 ) ;
#35 = ORIENTED_EDGE ( 'NONE', *, *, #36, .F. ) ;
#36 = EDGE_CURVE ( 'NONE', #50, #34, #118, .T. ) ;
#37 = ADVANCED_FACE ( 'NONE', ( #141 ), #110, .T. ) ;
#38 = EDGE_CURVE ( 'NONE', #27, #68, #133, .T. ) ;
#39 = CLOSED_SHELL ( 'NONE', ( #63, #65, #37, #47, #23 ) ) ;
#40 = MANIFOLD_SOLID_BREP ( 'NONE', #39 ) ;
#41 = EDGE_LOOP ( 'NONE', ( #42, #43, #45, #46 ) ) ;
#42 = ORIENTED_EDGE ( 'NONE', *, *, #33, .F. ) ;
#43 = ORIENTED_EDGE ( 'NONE', *, *, #44, .T. ) ;
#44 = EDGE_CURVE ( 'NONE', #60, #53, #9, .T. ) ;
#45 = ORIENTED_EDGE ( 'NONE', *, *, #52, .T. ) ;
#46 = ORIENTED_EDGE ( 'NONE', *, *, #36, .T. ) ;
#47 = ADVANCED_FACE ( 'NONE', ( #157 ), #162, .T. ) ;
#48 = EDGE_LOOP ( 'NONE', ( #61, #29, #64, #54, #28 ) ) ;
#49 = EDGE_LOOP ( 'NONE', ( #31, #30 ) ) ;
#50 = VERTEX_POINT ( 'NONE', #165 ) ;
#51 = ORIENTED_EDGE ( 'NONE', *, *, #52, .F. ) ;
#52 = EDGE_CURVE ( 'NONE', #53, #50, #164, .T. ) ;
#53 = VERTEX_POINT ( 'NONE', #168 ) ;
#54 = ORIENTED_EDGE ( 'NONE', *, *, #44, .F. ) ;
#55 = EDGE_LOOP ( 'NONE', ( #24, #62, #57, #51, #21 ) ) ;
#56 = EDGE_CURVE ( 'NONE', #50, #68, #174, .T. ) ;
#57 = ORIENTED_EDGE ( 'NONE', *, *, #56, .F. ) ;
#58 = ORIENTED_EDGE ( 'NONE', *, *, #59, .T. ) ;
#59 = EDGE_CURVE ( 'NONE', #68, #60, #178, .T. ) ;
#60 = VERTEX_POINT ( 'NONE', #191 ) ;
#61 = ORIENTED_EDGE ( 'NONE', *, *, #38, .F. ) ;
#62 = ORIENTED_EDGE ( 'NONE', *, *, #38, .T. ) ;
#63 = ADVANCED_FACE ( 'NONE', ( #190 ), #217, .T. ) ;
#64 = ORIENTED_EDGE ( 'NONE', *, *, #22, .T. ) ;
#65 = ADVANCED_FACE ( 'NONE', ( #218 ), #198, .T. ) ;
#66 = EDGE_LOOP ( 'NONE', ( #67, #58, #32, #35 ) ) ;
#67 = ORIENTED_EDGE ( 'NONE', *, *, #56, .T. ) ;
#68 = VERTEX_POINT ( 'NONE', #193 ) ;
#69 = EDGE_CURVE ( 'NONE', #27, #26, #244, .T. ) ;
#70 = SURFACE_STYLE_FILL_AREA ( #71 ) ;
#71 = FILL_AREA_STYLE ('',( #76 ) ) ;
#72 = SURFACE_SIDE_STYLE ('',( #70 ) ) ;
#73 = DIRECTION ( 'NONE',  ( -0.0000000000000000000, -0.0000000000000000000, 1.000000000000000000 ) ) ;
#74 = SURFACE_STYLE_USAGE ( .BOTH. , #72 ) ;
#75 = UNCERTAINTY_MEASURE_WITH_UNIT (LENGTH_MEASURE( 1.000000000000000100E-005 ), #82, 'distance_accuracy_value', 'NONE');
#76 = FILL_AREA_STYLE_COLOUR ( '', #100 ) ;
#77 = CARTESIAN_POINT ( 'NONE',  ( 37.50000000000000000, 0.0000000000000000000, 4.308132045400366600 ) ) ;
#78 = LINE ( 'NONE', #77, #101 ) ;
#79 = FACE_OUTER_BOUND ( 'NONE', #49, .T. ) ;
#80 =( NAMED_UNIT ( * ) SI_UNIT ( $, .STERADIAN. ) SOLID_ANGLE_UNIT ( ) );
#81 =( NAMED_UNIT ( * ) PLANE_ANGLE_UNIT ( ) SI_UNIT ( $, .RADIAN. ) );
#82 =( LENGTH_UNIT ( ) NAMED_UNIT ( * ) SI_UNIT ( .MILLI., .METRE. ) );
#83 = AXIS2_PLACEMENT_3D ( 'NONE', #99, #98, #97 ) ;
#84 = PLANE ( 'NONE',  #83 ) ;
#85 =( GEOMETRIC_REPRESENTATION_CONTEXT ( 3 ) GLOBAL_UNCERTAINTY_ASSIGNED_CONTEXT ( ( #75 ) ) GLOBAL_UNIT_ASSIGNED_CONTEXT ( ( #82, #81, #80 ) ) REPRESENTATION_CONTEXT ( 'NONE', 'WORKASPACE' ) );
#86 = PRESENTATION_STYLE_ASSIGNMENT (( #74 ) ) ;
#87 = CARTESIAN_POINT ( 'NONE',  ( -37.50000000000000000, 4.592273826833913900E-015, -9.595000000000000600 ) ) ;
#88 = CARTESIAN_POINT ( 'NONE',  ( 37.50000000000000000, 0.0000000000000000000, -9.595000000000000600 ) ) ;
#89 = DIRECTION ( 'NONE',  ( 1.000000000000000000, 0.0000000000000000000, 0.0000000000000000000 ) ) ;
#90 = DIRECTION ( 'NONE',  ( -0.0000000000000000000, -0.0000000000000000000, 1.000000000000000000 ) ) ;
#91 = CARTESIAN_POINT ( 'NONE',  ( 0.0000000000000000000, 0.0000000000000000000, -9.595000000000000600 ) ) ;
#92 = AXIS2_PLACEMENT_3D ( 'NONE', #91, #90, #89 ) ;
#93 = CIRCLE ( 'NONE', #92, 37.50000000000000000 ) ;
#94 = STYLED_ITEM ( 'NONE', ( #86 ), #23 ) ;
#95 = MECHANICAL_DESIGN_GEOMETRIC_PRESENTATION_REPRESENTATION (  '', ( #94 ), #85 ) ;
#96 = PRESENTATION_LAYER_ASSIGNMENT (  '', '', ( #94 ) ) ;
#97 = DIRECTION ( 'NONE',  ( 1.000000000000000000, 0.0000000000000000000, 0.0000000000000000000 ) ) ;
#98 = DIRECTION ( 'NONE',  ( 0.0000000000000000000, -0.0000000000000000000, 1.000000000000000000 ) ) ;
#99 = CARTESIAN_POINT ( 'NONE',  ( 0.0000000000000000000, 3.525145811345656000E-015, -9.595000000000000600 ) ) ;
#100 = COLOUR_RGB ( '',0.9568627450980391500, 0.9490196078431372100, 0.9607843137254902200 ) ;
#101 = VECTOR ( 'NONE', #73, 1000.000000000000000 ) ;
#102 = SURFACE_STYLE_USAGE ( .BOTH. , #143 ) ;
#103 = CARTESIAN_POINT ( 'NONE',  ( 0.0000000000000000000, 0.0000000000000000000, -41.90500000000000100 ) ) ;
#104 = AXIS2_PLACEMENT_3D ( 'NONE', #103, #136, #116 ) ;
#105 = DIRECTION ( 'NONE',  ( -0.0000000000000000000, -0.0000000000000000000, 1.000000000000000000 ) ) ;
#106 = VECTOR ( 'NONE', #105, 1000.000000000000000 ) ;
#107 = CARTESIAN_POINT ( 'NONE',  ( -37.50000000000000000, 4.592273826833913900E-015, 4.308132045400366600 ) ) ;
#108 = FILL_AREA_STYLE_COLOUR ( '', #128 ) ;
#109 = FILL_AREA_STYLE_COLOUR ( '', #137 ) ;
#110 = SPHERICAL_SURFACE ( 'NONE', #140, 51.49999999999999300 ) ;
#111 = FILL_AREA_STYLE ('',( #109 ) ) ;
#112 = MECHANICAL_DESIGN_GEOMETRIC_PRESENTATION_REPRESENTATION (  '', ( #117 ), #145 ) ;
#113 = PRESENTATION_LAYER_ASSIGNMENT (  '', '', ( #117 ) ) ;
#114 =( NAMED_UNIT ( * ) SI_UNIT ( $, .STERADIAN. ) SOLID_ANGLE_UNIT ( ) );
#115 =( LENGTH_UNIT ( ) NAMED_UNIT ( * ) SI_UNIT ( .MILLI., .METRE. ) );
#116 = DIRECTION ( 'NONE',  ( 0.0000000000000000000, 0.0000000000000000000, -1.000000000000000000 ) ) ;
#117 = STYLED_ITEM ( 'NONE', ( #119 ), #37 ) ;
#118 = CIRCLE ( 'NONE', #104, 51.49999999999999300 ) ;
#119 = PRESENTATION_STYLE_ASSIGNMENT (( #102 ) ) ;
#120 =( NAMED_UNIT ( * ) SI_UNIT ( $, .STERADIAN. ) SOLID_ANGLE_UNIT ( ) );
#121 =( NAMED_UNIT ( * ) PLANE_ANGLE_UNIT ( ) SI_UNIT ( $, .RADIAN. ) );
#122 =( LENGTH_UNIT ( ) NAMED_UNIT ( * ) SI_UNIT ( .MILLI., .METRE. ) );
#123 = MECHANICAL_DESIGN_GEOMETRIC_PRESENTATION_REPRESENTATION (  '', ( #130 ), #19 ) ;
#124 =( NAMED_UNIT ( * ) PLANE_ANGLE_UNIT ( ) SI_UNIT ( $, .RADIAN. ) );
#125 = SURFACE_SIDE_STYLE ('',( #126 ) ) ;
#126 = SURFACE_STYLE_FILL_AREA ( #127 ) ;
#127 = FILL_AREA_STYLE ('',( #108 ) ) ;
#128 = COLOUR_RGB ( '',0.7960784313725489700, 0.8235294117647058400, 0.9372549019607843100 ) ;
#129 = PRESENTATION_LAYER_ASSIGNMENT (  '', '', ( #130 ) ) ;
#130 = STYLED_ITEM ( 'NONE', ( #131 ), #40 ) ;
#131 = PRESENTATION_STYLE_ASSIGNMENT (( #132 ) ) ;
#132 = SURFACE_STYLE_USAGE ( .BOTH. , #125 ) ;
#133 = LINE ( 'NONE', #107, #106 ) ;
#134 = DIRECTION ( 'NONE',  ( 0.0000000000000000000, 1.000000000000000000, 0.0000000000000000000 ) ) ;
#135 = CARTESIAN_POINT ( 'NONE',  ( 0.0000000000000000000, 3.153361361092621000E-015, 9.594999999999991800 ) ) ;
#136 = DIRECTION ( 'NONE',  ( 1.000000000000000000, 0.0000000000000000000, 0.0000000000000000000 ) ) ;
#137 = COLOUR_RGB ( '',0.9568627450980391500, 0.9490196078431372100, 0.9607843137254902200 ) ;
#138 = DIRECTION ( 'NONE',  ( -1.000000000000000000, 0.0000000000000000000, 0.0000000000000000000 ) ) ;
#139 = CARTESIAN_POINT ( 'NONE',  ( 0.0000000000000000000, 0.0000000000000000000, -41.90500000000000100 ) ) ;
#140 = AXIS2_PLACEMENT_3D ( 'NONE', #139, #138, #134 ) ;
#141 = FACE_OUTER_BOUND ( 'NONE', #41, .T. ) ;
#142 = UNCERTAINTY_MEASURE_WITH_UNIT (LENGTH_MEASURE( 1.000000000000000100E-005 ), #115, 'distance_accuracy_value', 'NONE');
#143 = SURFACE_SIDE_STYLE ('',( #144 ) ) ;
#144 = SURFACE_STYLE_FILL_AREA ( #111 ) ;
#145 =( GEOMETRIC_REPRESENTATION_CONTEXT ( 3 ) GLOBAL_UNCERTAINTY_ASSIGNED_CONTEXT ( ( #142 ) ) GLOBAL_UNIT_ASSIGNED_CONTEXT ( ( #115, #124, #114 ) ) REPRESENTATION_CONTEXT ( 'NONE', 'WORKASPACE' ) );
#146 = SURFACE_STYLE_USAGE ( .BOTH. , #147 ) ;
#147 = SURFACE_SIDE_STYLE ('',( #148 ) ) ;
#148 = SURFACE_STYLE_FILL_AREA ( #149 ) ;
#149 = FILL_AREA_STYLE ('',( #150 ) ) ;
#150 = FILL_AREA_STYLE_COLOUR ( '', #156 ) ;
#151 =( LENGTH_UNIT ( ) NAMED_UNIT ( * ) SI_UNIT ( .MILLI., .METRE. ) );
#152 = MECHANICAL_DESIGN_GEOMETRIC_PRESENTATION_REPRESENTATION (  '', ( #154 ), #20 ) ;
#153 = PRESENTATION_LAYER_ASSIGNMENT (  '', '', ( #154 ) ) ;
#154 = STYLED_ITEM ( 'NONE', ( #155 ), #47 ) ;
#155 = PRESENTATION_STYLE_ASSIGNMENT (( #146 ) ) ;
#156 = COLOUR_RGB ( '',0.9568627450980391500, 0.9490196078431372100, 0.9607843137254902200 ) ;
#157 = FACE_OUTER_BOUND ( 'NONE', #48, .T. ) ;
#158 = DIRECTION ( 'NONE',  ( -0.0000000000000000000, -0.0000000000000000000, 1.000000000000000000 ) ) ;
#159 = CARTESIAN_POINT ( 'NONE',  ( 0.0000000000000000000, 0.0000000000000000000, 4.308132045400366600 ) ) ;
#160 = AXIS2_PLACEMENT_3D ( 'NONE', #159, #158, #161 ) ;
#161 = DIRECTION ( 'NONE',  ( 1.000000000000000000, 0.0000000000000000000, 0.0000000000000000000 ) ) ;
#162 = CYLINDRICAL_SURFACE ( 'NONE', #160, 37.50000000000000000 ) ;
#163 = AXIS2_PLACEMENT_3D ( 'NONE', #4, #2, #3 ) ;
#164 = CIRCLE ( 'NONE', #163, 37.50000000000000000 ) ;
#165 = CARTESIAN_POINT ( 'NONE',  ( 0.0000000000000000000, 37.49999999999999300, -6.606274810554422700 ) ) ;
#166 = DIRECTION ( 'NONE',  ( 1.000000000000000000, 0.0000000000000000000, 0.0000000000000000000 ) ) ;
#167 = DIRECTION ( 'NONE',  ( -0.0000000000000000000, -0.0000000000000000000, 1.000000000000000000 ) ) ;
#168 = CARTESIAN_POINT ( 'NONE',  ( 37.50000000000000000, 0.0000000000000000000, -6.606274810554420900 ) ) ;
#169 =( LENGTH_UNIT ( ) NAMED_UNIT ( * ) SI_UNIT ( .MILLI., .METRE. ) );
#170 = MECHANICAL_DESIGN_GEOMETRIC_PRESENTATION_REPRESENTATION (  '', ( #172 ), #6 ) ;
#171 = PRESENTATION_LAYER_ASSIGNMENT (  '', '', ( #172 ) ) ;
#172 = STYLED_ITEM ( 'NONE', ( #173 ), #63 ) ;
#173 = PRESENTATION_STYLE_ASSIGNMENT (( #184 ) ) ;
#174 = CIRCLE ( 'NONE', #183, 37.50000000000000000 ) ;
#175 = DIRECTION ( 'NONE',  ( -0.0000000000000000000, -0.0000000000000000000, 1.000000000000000000 ) ) ;
#176 = CARTESIAN_POINT ( 'NONE',  ( 0.0000000000000000000, 0.0000000000000000000, -6.606274810554420900 ) ) ;
#177 = AXIS2_PLACEMENT_3D ( 'NONE', #176, #175, #192 ) ;
#178 = CIRCLE ( 'NONE', #177, 37.50000000000000000 ) ;
#179 = UNCERTAINTY_MEASURE_WITH_UNIT (LENGTH_MEASURE( 1.000000000000000100E-005 ), #169, 'distance_accuracy_value', 'NONE');
#180 =( NAMED_UNIT ( * ) SI_UNIT ( $, .STERADIAN. ) SOLID_ANGLE_UNIT ( ) );
#181 =( NAMED_UNIT ( * ) PLANE_ANGLE_UNIT ( ) SI_UNIT ( $, .RADIAN. ) );
#182 = CARTESIAN_POINT ( 'NONE',  ( 0.0000000000000000000, 0.0000000000000000000, -6.606274810554420900 ) ) ;
#183 = AXIS2_PLACEMENT_3D ( 'NONE', #182, #167, #166 ) ;
#184 = SURFACE_STYLE_USAGE ( .BOTH. , #185 ) ;
#185 = SURFACE_SIDE_STYLE ('',( #186 ) ) ;
#186 = SURFACE_STYLE_FILL_AREA ( #187 ) ;
#187 = FILL_AREA_STYLE ('',( #188 ) ) ;
#188 = FILL_AREA_STYLE_COLOUR ( '', #189 ) ;
#189 = COLOUR_RGB ( '',0.9568627450980391500, 0.9490196078431372100, 0.9607843137254902200 ) ;
#190 = FACE_OUTER_BOUND ( 'NONE', #55, .T. ) ;
#191 = CARTESIAN_POINT ( 'NONE',  ( -4.592273826833913100E-015, -37.49999999999999300, -6.606274810554422700 ) ) ;
#192 = DIRECTION ( 'NONE',  ( 1.000000000000000000, 0.0000000000000000000, 0.0000000000000000000 ) ) ;
#193 = CARTESIAN_POINT ( 'NONE',  ( -37.50000000000000000, 4.592273826833913900E-015, -6.606274810554420900 ) ) ;
#194 = DIRECTION ( 'NONE',  ( 0.0000000000000000000, 1.000000000000000000, 0.0000000000000000000 ) ) ;
#195 = DIRECTION ( 'NONE',  ( -1.000000000000000000, 0.0000000000000000000, 0.0000000000000000000 ) ) ;
#196 = CARTESIAN_POINT ( 'NONE',  ( 0.0000000000000000000, 0.0000000000000000000, -41.90500000000000100 ) ) ;
#197 = AXIS2_PLACEMENT_3D ( 'NONE', #196, #195, #194 ) ;
#198 = SPHERICAL_SURFACE ( 'NONE', #197, 51.49999999999999300 ) ;
#199 =( GEOMETRIC_REPRESENTATION_CONTEXT ( 3 ) GLOBAL_UNCERTAINTY_ASSIGNED_CONTEXT ( ( #200 ) ) GLOBAL_UNIT_ASSIGNED_CONTEXT ( ( #203, #202, #201 ) ) REPRESENTATION_CONTEXT ( 'NONE', 'WORKASPACE' ) );
#200 = UNCERTAINTY_MEASURE_WITH_UNIT (LENGTH_MEASURE( 1.000000000000000100E-005 ), #203, 'distance_accuracy_value', 'NONE');
#201 =( NAMED_UNIT ( * ) SI_UNIT ( $, .STERADIAN. ) SOLID_ANGLE_UNIT ( ) );
#202 =( NAMED_UNIT ( * ) PLANE_ANGLE_UNIT ( ) SI_UNIT ( $, .RADIAN. ) );
#203 =( LENGTH_UNIT ( ) NAMED_UNIT ( * ) SI_UNIT ( .MILLI., .METRE. ) );
#204 = MECHANICAL_DESIGN_GEOMETRIC_PRESENTATION_REPRESENTATION (  '', ( #206 ), #199 ) ;
#205 = PRESENTATION_LAYER_ASSIGNMENT (  '', '', ( #206 ) ) ;
#206 = STYLED_ITEM ( 'NONE', ( #207 ), #65 ) ;
#207 = PRESENTATION_STYLE_ASSIGNMENT (( #208 ) ) ;
#208 = SURFACE_STYLE_USAGE ( .BOTH. , #209 ) ;
#209 = SURFACE_SIDE_STYLE ('',( #210 ) ) ;
#210 = SURFACE_STYLE_FILL_AREA ( #211 ) ;
#211 = FILL_AREA_STYLE ('',( #219 ) ) ;
#212 = COLOUR_RGB ( '',0.9568627450980391500, 0.9490196078431372100, 0.9607843137254902200 ) ;
#213 = DIRECTION ( 'NONE',  ( 1.000000000000000000, 0.0000000000000000000, 0.0000000000000000000 ) ) ;
#214 = DIRECTION ( 'NONE',  ( -0.0000000000000000000, -0.0000000000000000000, 1.000000000000000000 ) ) ;
#215 = CARTESIAN_POINT ( 'NONE',  ( 0.0000000000000000000, 0.0000000000000000000, 4.308132045400366600 ) ) ;
#216 = AXIS2_PLACEMENT_3D ( 'NONE', #215, #214, #213 ) ;
#217 = CYLINDRICAL_SURFACE ( 'NONE', #216, 37.50000000000000000 ) ;
#218 = FACE_OUTER_BOUND ( 'NONE', #66, .T. ) ;
#219 = FILL_AREA_STYLE_COLOUR ( '', #212 ) ;
#220 =( LENGTH_UNIT ( ) NAMED_UNIT ( * ) SI_UNIT ( .MILLI., .METRE. ) );
#221 = MECHANICAL_DESIGN_GEOMETRIC_PRESENTATION_REPRESENTATION (  '', ( #223 ), #248 ) ;
#222 = PRESENTATION_LAYER_ASSIGNMENT (  '', '', ( #223 ) ) ;
#223 = STYLED_ITEM ( 'NONE', ( #224 ), #233 ) ;
#224 = PRESENTATION_STYLE_ASSIGNMENT (( #225 ) ) ;
#225 = SURFACE_STYLE_USAGE ( .BOTH. , #226 ) ;
#226 = SURFACE_SIDE_STYLE ('',( #227 ) ) ;
#227 = SURFACE_STYLE_FILL_AREA ( #228 ) ;
#228 = FILL_AREA_STYLE ('',( #229 ) ) ;
#229 = FILL_AREA_STYLE_COLOUR ( '', #230 ) ;
#230 = COLOUR_RGB ( '',0.7960784313725489700, 0.8235294117647058400, 0.9372549019607843100 ) ;
#231 = APPLICATION_CONTEXT ( 'automotive_design' ) ;
#232 = SHAPE_DEFINITION_REPRESENTATION ( #252, #233 ) ;
#233 = ADVANCED_BREP_SHAPE_REPRESENTATION ( '3282-E0W', ( #40, #247 ), #234 ) ;
#234 =( GEOMETRIC_REPRESENTATION_CONTEXT ( 3 ) GLOBAL_UNCERTAINTY_ASSIGNED_CONTEXT ( ( #235 ) ) GLOBAL_UNIT_ASSIGNED_CONTEXT ( ( #238, #237, #236 ) ) REPRESENTATION_CONTEXT ( 'NONE', 'WORKASPACE' ) );
#235 = UNCERTAINTY_MEASURE_WITH_UNIT (LENGTH_MEASURE( 1.000000000000000100E-005 ), #238, 'distance_accuracy_value', 'NONE');
#236 =( NAMED_UNIT ( * ) SI_UNIT ( $, .STERADIAN. ) SOLID_ANGLE_UNIT ( ) );
#237 =( NAMED_UNIT ( * ) PLANE_ANGLE_UNIT ( ) SI_UNIT ( $, .RADIAN. ) );
#238 =( LENGTH_UNIT ( ) NAMED_UNIT ( * ) SI_UNIT ( .MILLI., .METRE. ) );
#239 = CARTESIAN_POINT ( 'NONE',  ( 0.0000000000000000000, 0.0000000000000000000, 0.0000000000000000000 ) ) ;
#240 = DIRECTION ( 'NONE',  ( 1.000000000000000000, 0.0000000000000000000, 0.0000000000000000000 ) ) ;
#241 = DIRECTION ( 'NONE',  ( -0.0000000000000000000, -0.0000000000000000000, 1.000000000000000000 ) ) ;
#242 = CARTESIAN_POINT ( 'NONE',  ( 0.0000000000000000000, 0.0000000000000000000, -9.595000000000000600 ) ) ;
#243 = AXIS2_PLACEMENT_3D ( 'NONE', #242, #241, #240 ) ;
#244 = CIRCLE ( 'NONE', #243, 37.50000000000000000 ) ;
#245 = DIRECTION ( 'NONE',  ( 1.000000000000000000, 0.0000000000000000000, 0.0000000000000000000 ) ) ;
#246 = DIRECTION ( 'NONE',  ( 0.0000000000000000000, 0.0000000000000000000, 1.000000000000000000 ) ) ;
#247 = AXIS2_PLACEMENT_3D ( 'NONE', #239, #246, #245 ) ;
#248 =( GEOMETRIC_REPRESENTATION_CONTEXT ( 3 ) GLOBAL_UNCERTAINTY_ASSIGNED_CONTEXT ( ( #249 ) ) GLOBAL_UNIT_ASSIGNED_CONTEXT ( ( #220, #251, #250 ) ) REPRESENTATION_CONTEXT ( 'NONE', 'WORKASPACE' ) );
#249 = UNCERTAINTY_MEASURE_WITH_UNIT (LENGTH_MEASURE( 1.000000000000000100E-005 ), #220, 'distance_accuracy_value', 'NONE');
#250 =( NAMED_UNIT ( * ) SI_UNIT ( $, .STERADIAN. ) SOLID_ANGLE_UNIT ( ) );
#251 =( NAMED_UNIT ( * ) PLANE_ANGLE_UNIT ( ) SI_UNIT ( $, .RADIAN. ) );
#252 = PRODUCT_DEFINITION_SHAPE ( 'NONE', 'NONE',  #255 ) ;
#253 = PRODUCT_RELATED_PRODUCT_CATEGORY ( 'part', '', ( #259 ) ) ;
#254 = PRODUCT_DEFINITION_FORMATION_WITH_SPECIFIED_SOURCE ( 'ANY', '', #259, .NOT_KNOWN. ) ;
#255 = PRODUCT_DEFINITION ( 'UNKNOWN', '', #254, #256 ) ;
#256 = PRODUCT_DEFINITION_CONTEXT ( 'detailed design', #258, 'design' ) ;
#257 = APPLICATION_PROTOCOL_DEFINITION ( 'draft international standard', 'automotive_design', 1998, #258 ) ;
#258 = APPLICATION_CONTEXT ( 'automotive_design' ) ;
#259 = PRODUCT ( '3282-E0W', '3282-E0W', '', ( #260 ) ) ;
#260 = PRODUCT_CONTEXT ( 'NONE', #231, 'mechanical' ) ;
#261 = APPLICATION_PROTOCOL_DEFINITION ( 'draft international standard', 'automotive_design', 1998, #231 ) ;
ENDSEC;
END-ISO-10303-21;
