ISO-10303-21;
HEADER;
FILE_DESCRIPTION (( 'STEP AP203' ),
    '1' );
FILE_NAME ('TTN162817-E0W.STEP',
    '2019-10-24T14:19:13',
    ( '' ),
    ( '' ),
    'SwSTEP 2.0',
    'SolidWorks 2018',
    '' );
FILE_SCHEMA (( 'CONFIG_CONTROL_DESIGN' ));
ENDSEC;

DATA;
#1 = LOCAL_TIME ( 10, 19, 13.00000000000000000, #144 ) ;
#2 = AXIS2_PLACEMENT_3D ( 'NONE', #208, #83, #287 ) ;
#3 = CONICAL_SURFACE ( 'NONE', #280, 1.500000000000000000, 0.7853981633974375098 ) ;
#4 = ADVANCED_BREP_SHAPE_REPRESENTATION ( 'TTN162817-E0W', ( #66, #296 ), #188 ) ;
#5 = PERSON ( 'UNSPECIFIED', 'UNSPECIFIED', 'UNSPECIFIED', ('UNSPECIFIED'), ('UNSPECIFIED'), ('UNSPECIFIED') ) ;
#6 = ADVANCED_FACE ( 'NONE', ( #175 ), #167, .T. ) ;
#7 = DIRECTION ( 'NONE',  ( -1.000000000000000000, 0.0000000000000000000, 0.0000000000000000000 ) ) ;
#8 = FACE_OUTER_BOUND ( 'NONE', #92, .T. ) ;
#9 = CIRCLE ( 'NONE', #69, 4.126000000000000334 ) ;
#10 = APPROVAL ( #222, 'UNSPECIFIED' ) ;
#11 = AXIS2_PLACEMENT_3D ( 'NONE', #183, #88, #125 ) ;
#12 = PLANE ( 'NONE',  #143 ) ;
#13 = APPROVAL_DATE_TIME ( #209, #10 ) ;
#14 = DIRECTION ( 'NONE',  ( -1.000000000000000000, 0.0000000000000000000, 0.0000000000000000000 ) ) ;
#15 = ORIENTED_EDGE ( 'NONE', *, *, #103, .T. ) ;
#16 = CIRCLE ( 'NONE', #230, 1.500000000000000000 ) ;
#17 = ORIENTED_EDGE ( 'NONE', *, *, #257, .F. ) ;
#18 = DIRECTION ( 'NONE',  ( -0.0000000000000000000, -0.0000000000000000000, 1.000000000000000000 ) ) ;
#19 = CARTESIAN_POINT ( 'NONE',  ( 1.417462070532561125, 1.286787868896511977, 1.635091254248505876 ) ) ;
#20 = COORDINATED_UNIVERSAL_TIME_OFFSET ( 5, 0, .BEHIND. ) ;
#21 = ORIENTED_EDGE ( 'NONE', *, *, #25, .T. ) ;
#22 = DIRECTION ( 'NONE',  ( -0.0000000000000000000, -0.0000000000000000000, 1.000000000000000000 ) ) ;
#23 = APPROVAL ( #54, 'UNSPECIFIED' ) ;
#24 = DATE_TIME_ROLE ( 'classification_date' ) ;
#25 = EDGE_CURVE ( 'NONE', #251, #239, #141, .T. ) ;
#26 = PRODUCT_DEFINITION_FORMATION_WITH_SPECIFIED_SOURCE ( 'ANY', '', #153, .NOT_KNOWN. ) ;
#27 = DIRECTION ( 'NONE',  ( 0.0000000000000000000, 0.0000000000000000000, 1.000000000000000000 ) ) ;
#28 = LOCAL_TIME ( 10, 19, 13.00000000000000000, #91 ) ;
#29 = ORIENTED_EDGE ( 'NONE', *, *, #275, .F. ) ;
#30 = DIRECTION ( 'NONE',  ( -1.051092750834226235E-16, -1.000000000000000000, 0.0000000000000000000 ) ) ;
#31 = APPLICATION_CONTEXT ( 'configuration controlled 3d designs of mechanical parts and assemblies' ) ;
#32 = VECTOR ( 'NONE', #317, 1000.000000000000114 ) ;
#33 = PERSON_AND_ORGANIZATION ( #5, #63 ) ;
#34 = PRODUCT_DEFINITION_SHAPE ( 'NONE', 'NONE',  #303 ) ;
#35 = CC_DESIGN_PERSON_AND_ORGANIZATION_ASSIGNMENT ( #197, #192, ( #303 ) ) ;
#36 = APPROVAL_PERSON_ORGANIZATION ( #134, #23, #294 ) ;
#37 = DIRECTION ( 'NONE',  ( -0.0000000000000000000, -0.0000000000000000000, 1.000000000000000000 ) ) ;
#38 = CARTESIAN_POINT ( 'NONE',  ( 1.417462070532561125, 1.286787868896511977, 1.585091254248504722 ) ) ;
#39 = AXIS2_PLACEMENT_3D ( 'NONE', #288, #136, #262 ) ;
#40 = DIRECTION ( 'NONE',  ( 0.7071067811865490160, 8.659560562354952580E-17, -0.7071067811865460184 ) ) ;
#41 = EDGE_CURVE ( 'NONE', #302, #116, #9, .T. ) ;
#42 = LOCAL_TIME ( 10, 19, 13.00000000000000000, #295 ) ;
#43 = VERTEX_POINT ( 'NONE', #308 ) ;
#44 = ORIENTED_EDGE ( 'NONE', *, *, #106, .T. ) ;
#45 = DIRECTION ( 'NONE',  ( 1.000000000000000000, 0.0000000000000000000, 0.0000000000000000000 ) ) ;
#46 = CARTESIAN_POINT ( 'NONE',  ( -0.03253792946743879616, 1.286787868896512199, 1.585091254248504722 ) ) ;
#47 = CIRCLE ( 'NONE', #173, 1.449999999999999956 ) ;
#48 = DIRECTION ( 'NONE',  ( -0.0000000000000000000, -0.0000000000000000000, 1.000000000000000000 ) ) ;
#49 = DIRECTION ( 'NONE',  ( -1.000000000000000000, 0.0000000000000000000, 0.0000000000000000000 ) ) ;
#50 =( NAMED_UNIT ( * ) PLANE_ANGLE_UNIT ( ) SI_UNIT ( $, .RADIAN. ) );
#51 = EDGE_LOOP ( 'NONE', ( #15, #152 ) ) ;
#52 = APPLICATION_PROTOCOL_DEFINITION ( 'international standard', 'config_control_design', 1994, #199 ) ;
#53 =( NAMED_UNIT ( * ) SI_UNIT ( $, .STERADIAN. ) SOLID_ANGLE_UNIT ( ) );
#54 = APPROVAL_STATUS ( 'not_yet_approved' ) ;
#55 = FACE_OUTER_BOUND ( 'NONE', #101, .T. ) ;
#56 = ORIENTED_EDGE ( 'NONE', *, *, #57, .T. ) ;
#57 = EDGE_CURVE ( 'NONE', #43, #162, #321, .T. ) ;
#58 = PRODUCT_RELATED_PRODUCT_CATEGORY ( 'detail', '', ( #153 ) ) ;
#59 = CIRCLE ( 'NONE', #210, 1.499999999999999556 ) ;
#60 = DIRECTION ( 'NONE',  ( 0.0000000000000000000, 0.0000000000000000000, -1.000000000000000000 ) ) ;
#61 = LINE ( 'NONE', #267, #32 ) ;
#62 = CARTESIAN_POINT ( 'NONE',  ( 1.417462070532561125, 1.286787868896511977, -1.040908745751495612 ) ) ;
#63 = ORGANIZATION ( 'UNSPECIFIED', 'UNSPECIFIED', '' ) ;
#64 = CC_DESIGN_PERSON_AND_ORGANIZATION_ASSIGNMENT ( #268, #117, ( #26 ) ) ;
#65 = EDGE_LOOP ( 'NONE', ( #223, #318, #229, #176 ) ) ;
#66 = MANIFOLD_SOLID_BREP ( 'TTN162782-1-solid1', #187 ) ;
#67 = VERTEX_POINT ( 'NONE', #284 ) ;
#68 = DIRECTION ( 'NONE',  ( 1.000000000000000000, 0.0000000000000000000, 0.0000000000000000000 ) ) ;
#69 = AXIS2_PLACEMENT_3D ( 'NONE', #207, #87, #234 ) ;
#70 = CARTESIAN_POINT ( 'NONE',  ( 2.867462070532560858, 1.286787868896512199, 2.821910949755920051 ) ) ;
#71 = CC_DESIGN_DATE_AND_TIME_ASSIGNMENT ( #228, #244, ( #303 ) ) ;
#72 = CIRCLE ( 'NONE', #80, 1.449999999999999956 ) ;
#73 = EDGE_CURVE ( 'NONE', #213, #251, #72, .T. ) ;
#74 = DATE_AND_TIME ( #104, #84 ) ;
#75 = ORIENTED_EDGE ( 'NONE', *, *, #106, .F. ) ;
#76 = CARTESIAN_POINT ( 'NONE',  ( 1.417462070532561125, 2.736787868896512155, 2.821910949755920051 ) ) ;
#77 = CYLINDRICAL_SURFACE ( 'NONE', #135, 1.500000000000000000 ) ;
#78 = FACE_OUTER_BOUND ( 'NONE', #224, .T. ) ;
#79 = CC_DESIGN_APPROVAL ( #10, ( #26 ) ) ;
#80 = AXIS2_PLACEMENT_3D ( 'NONE', #90, #37, #304 ) ;
#81 = DATE_AND_TIME ( #258, #1 ) ;
#82 = ORIENTED_EDGE ( 'NONE', *, *, #150, .F. ) ;
#83 = DIRECTION ( 'NONE',  ( -0.0000000000000000000, -0.0000000000000000000, 1.000000000000000000 ) ) ;
#84 = LOCAL_TIME ( 10, 19, 13.00000000000000000, #219 ) ;
#85 = ORIENTED_EDGE ( 'NONE', *, *, #122, .F. ) ;
#86 = ADVANCED_FACE ( 'NONE', ( #78 ), #212, .T. ) ;
#87 = DIRECTION ( 'NONE',  ( 1.000000000000000000, 0.0000000000000000000, 0.0000000000000000000 ) ) ;
#88 = DIRECTION ( 'NONE',  ( 0.0000000000000000000, 0.0000000000000000000, -1.000000000000000000 ) ) ;
#89 = ADVANCED_FACE ( 'NONE', ( #256 ), #12, .F. ) ;
#90 = CARTESIAN_POINT ( 'NONE',  ( 1.417462070532561125, 1.286787868896511977, 2.821910949755920051 ) ) ;
#91 = COORDINATED_UNIVERSAL_TIME_OFFSET ( 5, 0, .BEHIND. ) ;
#92 = EDGE_LOOP ( 'NONE', ( #99, #21, #161, #85, #243 ) ) ;
#93 = DIRECTION ( 'NONE',  ( 1.000000000000000000, 0.0000000000000000000, 0.0000000000000000000 ) ) ;
#94 = CIRCLE ( 'NONE', #149, 4.126000000000000334 ) ;
#95 = CARTESIAN_POINT ( 'NONE',  ( 1.417462070532561125, 1.286787868896511977, 3.085091254248504722 ) ) ;
#96 = PERSON_AND_ORGANIZATION ( #5, #63 ) ;
#97 = CARTESIAN_POINT ( 'NONE',  ( 1.417462070532561125, 1.286787868896511977, 2.771910949755920228 ) ) ;
#98 = APPROVAL_ROLE ( '' ) ;
#99 = ORIENTED_EDGE ( 'NONE', *, *, #241, .F. ) ;
#100 = AXIS2_PLACEMENT_3D ( 'NONE', #62, #7, #108 ) ;
#101 = EDGE_LOOP ( 'NONE', ( #279, #225, #17, #198 ) ) ;
#102 = ORIENTED_EDGE ( 'NONE', *, *, #253, .T. ) ;
#103 = EDGE_CURVE ( 'NONE', #43, #272, #246, .T. ) ;
#104 = CALENDAR_DATE ( 2019, 24, 10 ) ;
#105 = VECTOR ( 'NONE', #110, 1000.000000000000114 ) ;
#106 = EDGE_CURVE ( 'NONE', #163, #239, #59, .T. ) ;
#107 = DIRECTION ( 'NONE',  ( -1.000000000000000000, 0.0000000000000000000, 0.0000000000000000000 ) ) ;
#108 = DIRECTION ( 'NONE',  ( 0.0000000000000000000, 1.000000000000000000, 0.0000000000000000000 ) ) ;
#109 = ORIENTED_EDGE ( 'NONE', *, *, #241, .T. ) ;
#110 = DIRECTION ( 'NONE',  ( 0.7071067811865398012, 0.0000000000000000000, 0.7071067811865551223 ) ) ;
#111 = EDGE_CURVE ( 'NONE', #302, #67, #200, .T. ) ;
#112 = CARTESIAN_POINT ( 'NONE',  ( 1.417462070532561125, 1.286787868896511977, -1.040908745751495612 ) ) ;
#113 = FACE_OUTER_BOUND ( 'NONE', #202, .T. ) ;
#114 = DIRECTION ( 'NONE',  ( -0.0000000000000000000, -0.0000000000000000000, 1.000000000000000000 ) ) ;
#115 = SECURITY_CLASSIFICATION_LEVEL ( 'unclassified' ) ;
#116 = VERTEX_POINT ( 'NONE', #254 ) ;
#117 = PERSON_AND_ORGANIZATION_ROLE ( 'design_supplier' ) ;
#118 = PERSON_AND_ORGANIZATION_ROLE ( 'design_owner' ) ;
#119 = AXIS2_PLACEMENT_3D ( 'NONE', #214, #217, #93 ) ;
#120 = ORIENTED_EDGE ( 'NONE', *, *, #25, .F. ) ;
#121 = LINE ( 'NONE', #189, #180 ) ;
#122 = EDGE_CURVE ( 'NONE', #67, #163, #145, .T. ) ;
#123 = CALENDAR_DATE ( 2019, 24, 10 ) ;
#124 = ADVANCED_FACE ( 'NONE', ( #278 ), #139, .T. ) ;
#125 = DIRECTION ( 'NONE',  ( 1.000000000000000000, 0.0000000000000000000, 0.0000000000000000000 ) ) ;
#126 = VECTOR ( 'NONE', #156, 1000.000000000000114 ) ;
#127 = AXIS2_PLACEMENT_3D ( 'NONE', #259, #114, #68 ) ;
#128 = DIRECTION ( 'NONE',  ( 0.0000000000000000000, -0.0000000000000000000, 1.000000000000000000 ) ) ;
#129 = ADVANCED_FACE ( 'NONE', ( #250 ), #77, .T. ) ;
#130 = DIRECTION ( 'NONE',  ( 1.000000000000000000, 0.0000000000000000000, 0.0000000000000000000 ) ) ;
#131 = EDGE_CURVE ( 'NONE', #274, #163, #121, .T. ) ;
#132 = DATE_AND_TIME ( #201, #28 ) ;
#133 = ADVANCED_FACE ( 'NONE', ( #8 ), #255, .T. ) ;
#134 = PERSON_AND_ORGANIZATION ( #5, #63 ) ;
#135 = AXIS2_PLACEMENT_3D ( 'NONE', #95, #48, #45 ) ;
#136 = DIRECTION ( 'NONE',  ( -0.0000000000000000000, -0.0000000000000000000, 1.000000000000000000 ) ) ;
#137 = DIRECTION ( 'NONE',  ( 1.000000000000000000, 0.0000000000000000000, 0.0000000000000000000 ) ) ;
#138 = DIRECTION ( 'NONE',  ( -0.0000000000000000000, -0.0000000000000000000, 1.000000000000000000 ) ) ;
#139 = SPHERICAL_SURFACE ( 'NONE', #100, 4.126000000000000334 ) ;
#140 = ORIENTED_EDGE ( 'NONE', *, *, #179, .T. ) ;
#141 = LINE ( 'NONE', #233, #231 ) ;
#142 = DIRECTION ( 'NONE',  ( 1.000000000000000000, 0.0000000000000000000, 0.0000000000000000000 ) ) ;
#143 = AXIS2_PLACEMENT_3D ( 'NONE', #38, #128, #130 ) ;
#144 = COORDINATED_UNIVERSAL_TIME_OFFSET ( 5, 0, .BEHIND. ) ;
#145 = LINE ( 'NONE', #306, #126 ) ;
#146 = ORIENTED_EDGE ( 'NONE', *, *, #179, .F. ) ;
#147 = DIRECTION ( 'NONE',  ( -1.000000000000000000, 1.224646799147353207E-16, 0.0000000000000000000 ) ) ;
#148 = CC_DESIGN_DATE_AND_TIME_ASSIGNMENT ( #81, #24, ( #168 ) ) ;
#149 = AXIS2_PLACEMENT_3D ( 'NONE', #171, #147, #30 ) ;
#150 = EDGE_CURVE ( 'NONE', #272, #43, #227, .T. ) ;
#151 = ORIENTED_EDGE ( 'NONE', *, *, #57, .F. ) ;
#152 = ORIENTED_EDGE ( 'NONE', *, *, #150, .T. ) ;
#153 = PRODUCT ( 'TTN162817-E0W', 'TTN162817-E0W', '', ( #193 ) ) ;
#154 = AXIS2_PLACEMENT_3D ( 'NONE', #165, #166, #309 ) ;
#155 = DIRECTION ( 'NONE',  ( 1.000000000000000000, 0.0000000000000000000, 0.0000000000000000000 ) ) ;
#156 = DIRECTION ( 'NONE',  ( -0.7071067811865490160, 0.0000000000000000000, -0.7071067811865460184 ) ) ;
#157 = CC_DESIGN_APPROVAL ( #271, ( #168 ) ) ;
#158 = DESIGN_CONTEXT ( 'detailed design', #199, 'design' ) ;
#159 = APPROVAL_PERSON_ORGANIZATION ( #276, #10, #265 ) ;
#160 = CARTESIAN_POINT ( 'NONE',  ( 1.417462070532561125, 1.286787868896511977, 2.771910949755920228 ) ) ;
#161 = ORIENTED_EDGE ( 'NONE', *, *, #257, .T. ) ;
#162 = VERTEX_POINT ( 'NONE', #293 ) ;
#163 = VERTEX_POINT ( 'NONE', #242 ) ;
#164 = AXIS2_PLACEMENT_3D ( 'NONE', #160, #60, #107 ) ;
#165 = CARTESIAN_POINT ( 'NONE',  ( 1.417462070532561125, 1.286787868896511977, 2.821910949755920051 ) ) ;
#166 = DIRECTION ( 'NONE',  ( -0.0000000000000000000, -0.0000000000000000000, 1.000000000000000000 ) ) ;
#167 = CONICAL_SURFACE ( 'NONE', #164, 1.499999999999999778, 0.7853981633974504994 ) ;
#168 = SECURITY_CLASSIFICATION ( '', '', #115 ) ;
#169 = PERSON_AND_ORGANIZATION_ROLE ( 'creator' ) ;
#170 = EDGE_CURVE ( 'NONE', #162, #274, #186, .T. ) ;
#171 = CARTESIAN_POINT ( 'NONE',  ( 1.417462070532561125, 1.286787868896511977, -1.040908745751495612 ) ) ;
#172 =( LENGTH_UNIT ( ) NAMED_UNIT ( * ) SI_UNIT ( .MILLI., .METRE. ) );
#173 = AXIS2_PLACEMENT_3D ( 'NONE', #185, #22, #310 ) ;
#174 = SHAPE_DEFINITION_REPRESENTATION ( #34, #4 ) ;
#175 = FACE_OUTER_BOUND ( 'NONE', #177, .T. ) ;
#176 = ORIENTED_EDGE ( 'NONE', *, *, #111, .T. ) ;
#177 = EDGE_LOOP ( 'NONE', ( #120, #269, #286, #263, #44 ) ) ;
#178 = AXIS2_PLACEMENT_3D ( 'NONE', #203, #181, #205 ) ;
#179 = EDGE_CURVE ( 'NONE', #274, #162, #16, .T. ) ;
#180 = VECTOR ( 'NONE', #215, 1000.000000000000000 ) ;
#181 = DIRECTION ( 'NONE',  ( -0.0000000000000000000, -0.0000000000000000000, 1.000000000000000000 ) ) ;
#182 = ADVANCED_FACE ( 'NONE', ( #113 ), #3, .T. ) ;
#183 = CARTESIAN_POINT ( 'NONE',  ( 1.417462070532561125, 1.286787868896511977, 1.585091254248504722 ) ) ;
#184 = DIRECTION ( 'NONE',  ( 0.0000000000000000000, 0.0000000000000000000, -1.000000000000000000 ) ) ;
#185 = CARTESIAN_POINT ( 'NONE',  ( 1.417462070532561125, 1.286787868896511977, 2.821910949755920051 ) ) ;
#186 = CIRCLE ( 'NONE', #127, 1.500000000000000000 ) ;
#187 = CLOSED_SHELL ( 'NONE', ( #86, #124, #133, #204, #89, #129, #6, #206, #182 ) ) ;
#188 =( GEOMETRIC_REPRESENTATION_CONTEXT ( 3 ) GLOBAL_UNCERTAINTY_ASSIGNED_CONTEXT ( ( #301 ) ) GLOBAL_UNIT_ASSIGNED_CONTEXT ( ( #172, #50, #53 ) ) REPRESENTATION_CONTEXT ( 'NONE', 'WORKASPACE' ) );
#189 = CARTESIAN_POINT ( 'NONE',  ( -0.08253792946743893078, 1.286787868896512199, 3.085091254248504722 ) ) ;
#190 = CIRCLE ( 'NONE', #154, 1.449999999999999956 ) ;
#191 = EDGE_LOOP ( 'NONE', ( #249, #315, #109, #211 ) ) ;
#192 = PERSON_AND_ORGANIZATION_ROLE ( 'creator' ) ;
#193 = MECHANICAL_CONTEXT ( 'NONE', #31, 'mechanical' ) ;
#194 = PERSON_AND_ORGANIZATION_ROLE ( 'classification_officer' ) ;
#195 = CARTESIAN_POINT ( 'NONE',  ( 0.0000000000000000000, 0.0000000000000000000, 0.0000000000000000000 ) ) ;
#196 = CALENDAR_DATE ( 2019, 24, 10 ) ;
#197 = PERSON_AND_ORGANIZATION ( #5, #63 ) ;
#198 = ORIENTED_EDGE ( 'NONE', *, *, #253, .F. ) ;
#199 = APPLICATION_CONTEXT ( 'configuration controlled 3d designs of mechanical parts and assemblies' ) ;
#200 = CIRCLE ( 'NONE', #178, 1.449999999999999956 ) ;
#201 = CALENDAR_DATE ( 2019, 24, 10 ) ;
#202 = EDGE_LOOP ( 'NONE', ( #29, #277, #56, #146 ) ) ;
#203 = CARTESIAN_POINT ( 'NONE',  ( 1.417462070532561125, 1.286787868896511977, 2.821910949755920051 ) ) ;
#204 = ADVANCED_FACE ( 'NONE', ( #55 ), #238, .T. ) ;
#205 = DIRECTION ( 'NONE',  ( 1.000000000000000000, 0.0000000000000000000, 0.0000000000000000000 ) ) ;
#206 = ADVANCED_FACE ( 'NONE', ( #298 ), #291, .T. ) ;
#207 = CARTESIAN_POINT ( 'NONE',  ( 1.417462070532561125, 1.286787868896511977, -1.040908745751495612 ) ) ;
#208 = CARTESIAN_POINT ( 'NONE',  ( 1.417462070532561125, 1.286787868896511977, 1.635091254248505876 ) ) ;
#209 = DATE_AND_TIME ( #196, #42 ) ;
#210 = AXIS2_PLACEMENT_3D ( 'NONE', #282, #252, #155 ) ;
#211 = ORIENTED_EDGE ( 'NONE', *, *, #41, .T. ) ;
#212 = CONICAL_SURFACE ( 'NONE', #2, 1.500000000000000000, 0.7853981633974375098 ) ;
#213 = VERTEX_POINT ( 'NONE', #312 ) ;
#214 = CARTESIAN_POINT ( 'NONE',  ( 1.417462070532561125, 1.286787868896511977, 1.585091254248504722 ) ) ;
#215 = DIRECTION ( 'NONE',  ( -0.0000000000000000000, -0.0000000000000000000, 1.000000000000000000 ) ) ;
#216 = EDGE_CURVE ( 'NONE', #67, #213, #190, .T. ) ;
#217 = DIRECTION ( 'NONE',  ( 0.0000000000000000000, 0.0000000000000000000, -1.000000000000000000 ) ) ;
#218 = CARTESIAN_POINT ( 'NONE',  ( 1.417462070532561125, 1.286787868896511977, 2.771910949755920228 ) ) ;
#219 = COORDINATED_UNIVERSAL_TIME_OFFSET ( 5, 0, .BEHIND. ) ;
#220 = AXIS2_PLACEMENT_3D ( 'NONE', #112, #14, #237 ) ;
#221 = APPROVAL_PERSON_ORGANIZATION ( #285, #271, #98 ) ;
#222 = APPROVAL_STATUS ( 'not_yet_approved' ) ;
#223 = ORIENTED_EDGE ( 'NONE', *, *, #216, .T. ) ;
#224 = EDGE_LOOP ( 'NONE', ( #82, #311, #299, #151 ) ) ;
#225 = ORIENTED_EDGE ( 'NONE', *, *, #131, .T. ) ;
#226 = DIRECTION ( 'NONE',  ( -0.0000000000000000000, -0.0000000000000000000, 1.000000000000000000 ) ) ;
#227 = CIRCLE ( 'NONE', #119, 1.449999999999999956 ) ;
#228 = DATE_AND_TIME ( #123, #273 ) ;
#229 = ORIENTED_EDGE ( 'NONE', *, *, #41, .F. ) ;
#230 = AXIS2_PLACEMENT_3D ( 'NONE', #264, #138, #137 ) ;
#231 = VECTOR ( 'NONE', #40, 1000.000000000000114 ) ;
#232 = CC_DESIGN_PERSON_AND_ORGANIZATION_ASSIGNMENT ( #96, #169, ( #26 ) ) ;
#233 = CARTESIAN_POINT ( 'NONE',  ( 2.917462070532560681, 1.286787868896512199, 2.771910949755920228 ) ) ;
#234 = DIRECTION ( 'NONE',  ( 0.0000000000000000000, 0.0000000000000000000, -1.000000000000000000 ) ) ;
#235 = CC_DESIGN_PERSON_AND_ORGANIZATION_ASSIGNMENT ( #33, #194, ( #168 ) ) ;
#236 = CARTESIAN_POINT ( 'NONE',  ( 2.917462070532560681, 1.286787868896511977, 2.771910949755920228 ) ) ;
#237 = DIRECTION ( 'NONE',  ( 0.0000000000000000000, 1.000000000000000000, 0.0000000000000000000 ) ) ;
#238 = CYLINDRICAL_SURFACE ( 'NONE', #39, 1.500000000000000000 ) ;
#239 = VERTEX_POINT ( 'NONE', #236 ) ;
#240 = CARTESIAN_POINT ( 'NONE',  ( -0.08253792946743893078, 1.286787868896512199, 1.635091254248505876 ) ) ;
#241 = EDGE_CURVE ( 'NONE', #251, #302, #47, .T. ) ;
#242 = CARTESIAN_POINT ( 'NONE',  ( -0.08253792946743870873, 1.286787868896512199, 2.771910949755920228 ) ) ;
#243 = ORIENTED_EDGE ( 'NONE', *, *, #111, .F. ) ;
#244 = DATE_TIME_ROLE ( 'creation_date' ) ;
#245 = APPROVAL_STATUS ( 'not_yet_approved' ) ;
#246 = CIRCLE ( 'NONE', #11, 1.449999999999999956 ) ;
#247 = CC_DESIGN_SECURITY_CLASSIFICATION ( #168, ( #26 ) ) ;
#248 = CIRCLE ( 'NONE', #266, 1.499999999999999556 ) ;
#249 = ORIENTED_EDGE ( 'NONE', *, *, #305, .F. ) ;
#250 = FACE_OUTER_BOUND ( 'NONE', #292, .T. ) ;
#251 = VERTEX_POINT ( 'NONE', #70 ) ;
#252 = DIRECTION ( 'NONE',  ( -0.0000000000000000000, -0.0000000000000000000, 1.000000000000000000 ) ) ;
#253 = EDGE_CURVE ( 'NONE', #162, #239, #314, .T. ) ;
#254 = CARTESIAN_POINT ( 'NONE',  ( 1.417462070532561125, 1.286787868896512199, 3.085091254248504722 ) ) ;
#255 = CONICAL_SURFACE ( 'NONE', #319, 1.499999999999999778, 0.7853981633974504994 ) ;
#256 = FACE_OUTER_BOUND ( 'NONE', #51, .T. ) ;
#257 = EDGE_CURVE ( 'NONE', #239, #163, #248, .T. ) ;
#258 = CALENDAR_DATE ( 2019, 24, 10 ) ;
#259 = CARTESIAN_POINT ( 'NONE',  ( 1.417462070532561125, 1.286787868896511977, 1.635091254248505876 ) ) ;
#260 = APPROVAL_DATE_TIME ( #74, #23 ) ;
#261 = DIRECTION ( 'NONE',  ( -0.0000000000000000000, -0.0000000000000000000, 1.000000000000000000 ) ) ;
#262 = DIRECTION ( 'NONE',  ( 1.000000000000000000, 0.0000000000000000000, 0.0000000000000000000 ) ) ;
#263 = ORIENTED_EDGE ( 'NONE', *, *, #122, .T. ) ;
#264 = CARTESIAN_POINT ( 'NONE',  ( 1.417462070532561125, 1.286787868896511977, 1.635091254248505876 ) ) ;
#265 = APPROVAL_ROLE ( '' ) ;
#266 = AXIS2_PLACEMENT_3D ( 'NONE', #97, #226, #297 ) ;
#267 = CARTESIAN_POINT ( 'NONE',  ( -0.08253792946743893078, 1.286787868896512199, 1.635091254248505876 ) ) ;
#268 = PERSON_AND_ORGANIZATION ( #5, #63 ) ;
#269 = ORIENTED_EDGE ( 'NONE', *, *, #73, .F. ) ;
#270 = PERSON_AND_ORGANIZATION ( #5, #63 ) ;
#271 = APPROVAL ( #245, 'UNSPECIFIED' ) ;
#272 = VERTEX_POINT ( 'NONE', #46 ) ;
#273 = LOCAL_TIME ( 10, 19, 13.00000000000000000, #20 ) ;
#274 = VERTEX_POINT ( 'NONE', #240 ) ;
#275 = EDGE_CURVE ( 'NONE', #272, #274, #61, .T. ) ;
#276 = PERSON_AND_ORGANIZATION ( #5, #63 ) ;
#277 = ORIENTED_EDGE ( 'NONE', *, *, #103, .F. ) ;
#278 = FACE_OUTER_BOUND ( 'NONE', #65, .T. ) ;
#279 = ORIENTED_EDGE ( 'NONE', *, *, #170, .T. ) ;
#280 = AXIS2_PLACEMENT_3D ( 'NONE', #19, #18, #142 ) ;
#281 = CARTESIAN_POINT ( 'NONE',  ( 2.917462070532561125, 1.286787868896511977, 1.635091254248505876 ) ) ;
#282 = CARTESIAN_POINT ( 'NONE',  ( 1.417462070532561125, 1.286787868896511977, 2.771910949755920228 ) ) ;
#283 = CC_DESIGN_APPROVAL ( #23, ( #303 ) ) ;
#284 = CARTESIAN_POINT ( 'NONE',  ( -0.03253792946743879616, 1.286787868896511977, 2.821910949755920051 ) ) ;
#285 = PERSON_AND_ORGANIZATION ( #5, #63 ) ;
#286 = ORIENTED_EDGE ( 'NONE', *, *, #216, .F. ) ;
#287 = DIRECTION ( 'NONE',  ( 1.000000000000000000, 0.0000000000000000000, 0.0000000000000000000 ) ) ;
#288 = CARTESIAN_POINT ( 'NONE',  ( 1.417462070532561125, 1.286787868896511977, 3.085091254248504722 ) ) ;
#289 = CARTESIAN_POINT ( 'NONE',  ( 2.917462070532561125, 1.286787868896511977, 3.085091254248504722 ) ) ;
#290 = CC_DESIGN_PERSON_AND_ORGANIZATION_ASSIGNMENT ( #270, #118, ( #153 ) ) ;
#291 = SPHERICAL_SURFACE ( 'NONE', #220, 4.126000000000000334 ) ;
#292 = EDGE_LOOP ( 'NONE', ( #307, #140, #102, #75 ) ) ;
#293 = CARTESIAN_POINT ( 'NONE',  ( 2.917462070532561125, 1.286787868896511977, 1.635091254248505876 ) ) ;
#294 = APPROVAL_ROLE ( '' ) ;
#295 = COORDINATED_UNIVERSAL_TIME_OFFSET ( 5, 0, .BEHIND. ) ;
#296 = AXIS2_PLACEMENT_3D ( 'NONE', #195, #27, #313 ) ;
#297 = DIRECTION ( 'NONE',  ( 1.000000000000000000, 0.0000000000000000000, 0.0000000000000000000 ) ) ;
#298 = FACE_OUTER_BOUND ( 'NONE', #191, .T. ) ;
#299 = ORIENTED_EDGE ( 'NONE', *, *, #170, .F. ) ;
#300 = APPROVAL_DATE_TIME ( #132, #271 ) ;
#301 = UNCERTAINTY_MEASURE_WITH_UNIT (LENGTH_MEASURE( 1.000000000000000082E-05 ), #172, 'distance_accuracy_value', 'NONE');
#302 = VERTEX_POINT ( 'NONE', #76 ) ;
#303 = PRODUCT_DEFINITION ( 'UNKNOWN', '', #26, #158 ) ;
#304 = DIRECTION ( 'NONE',  ( 1.000000000000000000, 0.0000000000000000000, 0.0000000000000000000 ) ) ;
#305 = EDGE_CURVE ( 'NONE', #213, #116, #94, .T. ) ;
#306 = CARTESIAN_POINT ( 'NONE',  ( -0.08253792946743870873, 1.286787868896511977, 2.771910949755920228 ) ) ;
#307 = ORIENTED_EDGE ( 'NONE', *, *, #131, .F. ) ;
#308 = CARTESIAN_POINT ( 'NONE',  ( 2.867462070532560858, 1.286787868896511977, 1.585091254248504722 ) ) ;
#309 = DIRECTION ( 'NONE',  ( 1.000000000000000000, 0.0000000000000000000, 0.0000000000000000000 ) ) ;
#310 = DIRECTION ( 'NONE',  ( 1.000000000000000000, 0.0000000000000000000, 0.0000000000000000000 ) ) ;
#311 = ORIENTED_EDGE ( 'NONE', *, *, #275, .T. ) ;
#312 = CARTESIAN_POINT ( 'NONE',  ( 1.417462070532560903, -0.1632121311034880062, 2.821910949755920051 ) ) ;
#313 = DIRECTION ( 'NONE',  ( 1.000000000000000000, 0.0000000000000000000, 0.0000000000000000000 ) ) ;
#314 = LINE ( 'NONE', #289, #320 ) ;
#315 = ORIENTED_EDGE ( 'NONE', *, *, #73, .T. ) ;
#316 = APPLICATION_PROTOCOL_DEFINITION ( 'international standard', 'config_control_design', 1994, #31 ) ;
#317 = DIRECTION ( 'NONE',  ( -0.7071067811865398012, 8.659560562354836716E-17, 0.7071067811865551223 ) ) ;
#318 = ORIENTED_EDGE ( 'NONE', *, *, #305, .T. ) ;
#319 = AXIS2_PLACEMENT_3D ( 'NONE', #218, #184, #49 ) ;
#320 = VECTOR ( 'NONE', #261, 1000.000000000000000 ) ;
#321 = LINE ( 'NONE', #281, #105 ) ;
ENDSEC;
END-ISO-10303-21;
