ISO-10303-21;
HEADER;
FILE_DESCRIPTION (( 'STEP AP203' ),
    '1' );
FILE_NAME ('4300-E0W.STEP',
    '2015-05-29T14:17:12',
    ( 'admin' ),
    ( '' ),
    'SwSTEP 2.0',
    'SolidWorks 2014',
    '' );
FILE_SCHEMA (( 'CONFIG_CONTROL_DESIGN' ));
ENDSEC;

DATA;
#1 = CARTESIAN_POINT ( 'NONE',  ( 0.0000000000000000000, 0.0000000000000000000, 0.0000000000000000000 ) ) ;
#2 = EDGE_CURVE ( 'NONE', #59, #119, #163, .T. ) ;
#3 = AXIS2_PLACEMENT_3D ( 'NONE', #142, #93, #260 ) ;
#4 = ORIENTED_EDGE ( 'NONE', *, *, #2, .F. ) ;
#5 = EDGE_CURVE ( 'NONE', #23, #119, #135, .T. ) ;
#6 = CARTESIAN_POINT ( 'NONE',  ( -1.950000000000000000, 0.0000000000000000000, 0.0000000000000000000 ) ) ;
#7 = LOCAL_TIME ( 10, 17, 12.00000000000000000, #239 ) ;
#8 = DATE_TIME_ROLE ( 'creation_date' ) ;
#9 = PERSON_AND_ORGANIZATION ( #273, #78 ) ;
#10 = EDGE_LOOP ( 'NONE', ( #11, #82, #208, #257 ) ) ;
#11 = ORIENTED_EDGE ( 'NONE', *, *, #80, .T. ) ;
#12 = DIRECTION ( 'NONE',  ( -1.000000000000000000, -0.0000000000000000000, -0.0000000000000000000 ) ) ;
#13 = DIRECTION ( 'NONE',  ( 1.000000000000000000, 0.0000000000000000000, 0.0000000000000000000 ) ) ;
#14 = DIRECTION ( 'NONE',  ( 0.0000000000000000000, 0.0000000000000000000, -1.000000000000000000 ) ) ;
#15 = CARTESIAN_POINT ( 'NONE',  ( -343.1496549574520700, 0.0000000000000000000, 0.0000000000000000000 ) ) ;
#16 = PRODUCT_DEFINITION_SHAPE ( 'NONE', 'NONE',  #247 ) ;
#17 = CARTESIAN_POINT ( 'NONE',  ( 0.7797891176564153400, 3.110602869834273300E-015, -25.39999999999996700 ) ) ;
#18 = EDGE_LOOP ( 'NONE', ( #141, #298, #218, #249 ) ) ;
#19 = EDGE_LOOP ( 'NONE', ( #4, #40, #169, #191 ) ) ;
#20 = LINE ( 'NONE', #69, #283 ) ;
#21 = CIRCLE ( 'NONE', #3, 25.14999999999999100 ) ;
#22 = DIRECTION ( 'NONE',  ( -1.000000000000000000, -0.0000000000000000000, -0.0000000000000000000 ) ) ;
#23 = VERTEX_POINT ( 'NONE', #129 ) ;
#24 = LOCAL_TIME ( 10, 17, 12.00000000000000000, #109 ) ;
#25 = CARTESIAN_POINT ( 'NONE',  ( -1.950000000000000000, 3.110602869834273300E-015, -25.39999999999996700 ) ) ;
#26 = EDGE_CURVE ( 'NONE', #130, #285, #281, .T. ) ;
#27 = PERSON_AND_ORGANIZATION ( #273, #78 ) ;
#28 = CARTESIAN_POINT ( 'NONE',  ( 0.7797891176564153400, 0.0000000000000000000, 0.0000000000000000000 ) ) ;
#29 = CALENDAR_DATE ( 2015, 29, 5 ) ;
#30 = APPROVAL ( #45, 'UNSPECIFIED' ) ;
#31 = ADVANCED_FACE ( 'NONE', ( #36 ), #134, .T. ) ;
#32 = PERSON_AND_ORGANIZATION_ROLE ( 'design_owner' ) ;
#33 = EDGE_CURVE ( 'NONE', #120, #23, #21, .T. ) ;
#34 = UNCERTAINTY_MEASURE_WITH_UNIT (LENGTH_MEASURE( 1.000000000000000100E-005 ), #295, 'distance_accuracy_value', 'NONE');
#35 = APPROVAL_DATE_TIME ( #268, #241 ) ;
#36 = FACE_OUTER_BOUND ( 'NONE', #71, .T. ) ;
#37 = EDGE_CURVE ( 'NONE', #266, #53, #261, .T. ) ;
#38 = CC_DESIGN_DATE_AND_TIME_ASSIGNMENT ( #236, #8, ( #247 ) ) ;
#39 = PERSON_AND_ORGANIZATION_ROLE ( 'creator' ) ;
#40 = ORIENTED_EDGE ( 'NONE', *, *, #235, .T. ) ;
#41 = DATE_AND_TIME ( #197, #7 ) ;
#42 = EDGE_CURVE ( 'NONE', #23, #120, #87, .T. ) ;
#43 = SECURITY_CLASSIFICATION_LEVEL ( 'unclassified' ) ;
#44 = CIRCLE ( 'NONE', #116, 25.15073595421179700 ) ;
#45 = APPROVAL_STATUS ( 'not_yet_approved' ) ;
#46 = CARTESIAN_POINT ( 'NONE',  ( 0.7797891176564153400, 0.0000000000000000000, 0.0000000000000000000 ) ) ;
#47 = CARTESIAN_POINT ( 'NONE',  ( -343.1496549574520700, 0.0000000000000000000, 0.4880043519013052000 ) ) ;
#48 = AXIS2_PLACEMENT_3D ( 'NONE', #73, #13, #65 ) ;
#49 = VECTOR ( 'NONE', #256, 1000.000000000000000 ) ;
#50 = ORIENTED_EDGE ( 'NONE', *, *, #157, .F. ) ;
#51 = CARTESIAN_POINT ( 'NONE',  ( 0.7797891176564153400, 0.0000000000000000000, 0.0000000000000000000 ) ) ;
#52 = CIRCLE ( 'NONE', #92, 25.39999999999996700 ) ;
#53 = VERTEX_POINT ( 'NONE', #155 ) ;
#54 = CALENDAR_DATE ( 2015, 29, 5 ) ;
#55 = CONICAL_SURFACE ( 'NONE', #106, 25.39999999999996700, 0.7131475609274592300 ) ;
#56 = DIRECTION ( 'NONE',  ( 0.0000000000000000000, 0.0000000000000000000, 1.000000000000000000 ) ) ;
#57 = CIRCLE ( 'NONE', #112, 25.39999999999996700 ) ;
#58 = CARTESIAN_POINT ( 'NONE',  ( -1.950000000000000000, 3.095294784844933000E-015, 25.14999999999999100 ) ) ;
#59 = VERTEX_POINT ( 'NONE', #150 ) ;
#60 = DIRECTION ( 'NONE',  ( 0.0000000000000000000, 0.0000000000000000000, 1.000000000000000000 ) ) ;
#61 = CARTESIAN_POINT ( 'NONE',  ( -1.700000000000020600, 0.0000000000000000000, 0.0000000000000000000 ) ) ;
#62 = ORIENTED_EDGE ( 'NONE', *, *, #235, .F. ) ;
#63 = EDGE_LOOP ( 'NONE', ( #107, #200, #222, #95 ) ) ;
#64 = DIRECTION ( 'NONE',  ( 1.000000000000000000, 0.0000000000000000000, 0.0000000000000000000 ) ) ;
#65 = DIRECTION ( 'NONE',  ( 0.0000000000000000000, 0.0000000000000000000, 1.000000000000000000 ) ) ;
#66 = CARTESIAN_POINT ( 'NONE',  ( 0.7797891176564153400, 0.0000000000000000000, 25.39999999999996700 ) ) ;
#67 = DIRECTION ( 'NONE',  ( 0.0000000000000000000, 0.0000000000000000000, 1.000000000000000000 ) ) ;
#68 = DIRECTION ( 'NONE',  ( -1.000000000000000000, -0.0000000000000000000, -0.0000000000000000000 ) ) ;
#69 = CARTESIAN_POINT ( 'NONE',  ( -1.950000000000000000, 3.079986699855592700E-015, 25.14999999999999100 ) ) ;
#70 = EDGE_LOOP ( 'NONE', ( #243, #267 ) ) ;
#71 = EDGE_LOOP ( 'NONE', ( #232, #202, #262 ) ) ;
#72 = APPROVAL_DATE_TIME ( #144, #30 ) ;
#73 = CARTESIAN_POINT ( 'NONE',  ( 1.067950155813957000, 0.0000000000000000000, 0.0000000000000000000 ) ) ;
#74 = LINE ( 'NONE', #17, #194 ) ;
#75 = SECURITY_CLASSIFICATION ( '', '', #43 ) ;
#76 = DIRECTION ( 'NONE',  ( -1.000000000000000000, -0.0000000000000000000, -0.0000000000000000000 ) ) ;
#77 = ORIENTED_EDGE ( 'NONE', *, *, #110, .F. ) ;
#78 = ORGANIZATION ( 'UNSPECIFIED', 'UNSPECIFIED', '' ) ;
#79 = SHAPE_DEFINITION_REPRESENTATION ( #16, #86 ) ;
#80 = EDGE_CURVE ( 'NONE', #266, #59, #57, .T. ) ;
#81 = AXIS2_PLACEMENT_3D ( 'NONE', #15, #297, #56 ) ;
#82 = ORIENTED_EDGE ( 'NONE', *, *, #2, .T. ) ;
#83 = ORIENTED_EDGE ( 'NONE', *, *, #5, .F. ) ;
#84 = EDGE_CURVE ( 'NONE', #130, #153, #215, .T. ) ;
#85 = CARTESIAN_POINT ( 'NONE',  ( -343.1496549574520700, 0.0000000000000000000, 0.0000000000000000000 ) ) ;
#86 = ADVANCED_BREP_SHAPE_REPRESENTATION ( '4300-E0W', ( #171, #230 ), #166 ) ;
#87 = CIRCLE ( 'NONE', #126, 25.14999999999999100 ) ;
#88 = CARTESIAN_POINT ( 'NONE',  ( -1.950000000000000000, 0.0000000000000000000, 25.39999999999996700 ) ) ;
#89 = EDGE_CURVE ( 'NONE', #285, #266, #154, .T. ) ;
#90 = CARTESIAN_POINT ( 'NONE',  ( 0.7797891176564153400, 0.0000000000000000000, 25.39999999999996700 ) ) ;
#91 = CARTESIAN_POINT ( 'NONE',  ( -343.1496549574520700, 5.976329675259120300E-017, -0.4880043519013052000 ) ) ;
#92 = AXIS2_PLACEMENT_3D ( 'NONE', #61, #165, #296 ) ;
#93 = DIRECTION ( 'NONE',  ( -1.000000000000000000, -0.0000000000000000000, -0.0000000000000000000 ) ) ;
#94 = CARTESIAN_POINT ( 'NONE',  ( 1.067950155813957000, 0.0000000000000000000, 0.0000000000000000000 ) ) ;
#95 = ORIENTED_EDGE ( 'NONE', *, *, #89, .F. ) ;
#96 = CIRCLE ( 'NONE', #159, 25.39999999999996700 ) ;
#97 = ADVANCED_FACE ( 'NONE', ( #143 ), #250, .T. ) ;
#98 = APPROVAL ( #122, 'UNSPECIFIED' ) ;
#99 = DIRECTION ( 'NONE',  ( 1.000000000000000000, 0.0000000000000000000, 0.0000000000000000000 ) ) ;
#100 = ORIENTED_EDGE ( 'NONE', *, *, #26, .T. ) ;
#101 = PERSON_AND_ORGANIZATION ( #273, #78 ) ;
#102 = PERSON_AND_ORGANIZATION ( #273, #78 ) ;
#103 = DIRECTION ( 'NONE',  ( 0.0000000000000000000, 0.0000000000000000000, -1.000000000000000000 ) ) ;
#104 = AXIS2_PLACEMENT_3D ( 'NONE', #46, #234, #229 ) ;
#105 = ORIENTED_EDGE ( 'NONE', *, *, #286, .F. ) ;
#106 = AXIS2_PLACEMENT_3D ( 'NONE', #172, #288, #148 ) ;
#107 = ORIENTED_EDGE ( 'NONE', *, *, #185, .F. ) ;
#108 = FACE_OUTER_BOUND ( 'NONE', #63, .T. ) ;
#109 = COORDINATED_UNIVERSAL_TIME_OFFSET ( 5, 0, .BEHIND. ) ;
#110 = EDGE_CURVE ( 'NONE', #285, #153, #44, .T. ) ;
#111 = AXIS2_PLACEMENT_3D ( 'NONE', #214, #64, #117 ) ;
#112 = AXIS2_PLACEMENT_3D ( 'NONE', #51, #68, #60 ) ;
#113 = DIRECTION ( 'NONE',  ( 0.0000000000000000000, 0.0000000000000000000, -1.000000000000000000 ) ) ;
#114 = ORIENTED_EDGE ( 'NONE', *, *, #33, .F. ) ;
#115 = CARTESIAN_POINT ( 'NONE',  ( -1.950000000000000000, 0.0000000000000000000, 0.0000000000000000000 ) ) ;
#116 = AXIS2_PLACEMENT_3D ( 'NONE', #94, #156, #282 ) ;
#117 = DIRECTION ( 'NONE',  ( 0.0000000000000000000, 0.0000000000000000000, -1.000000000000000000 ) ) ;
#118 = DIRECTION ( 'NONE',  ( 0.0000000000000000000, 0.0000000000000000000, -1.000000000000000000 ) ) ;
#119 = VERTEX_POINT ( 'NONE', #205 ) ;
#120 = VERTEX_POINT ( 'NONE', #58 ) ;
#121 = CIRCLE ( 'NONE', #48, 25.15073595421179700 ) ;
#122 = APPROVAL_STATUS ( 'not_yet_approved' ) ;
#123 = DIRECTION ( 'NONE',  ( -1.000000000000000000, -0.0000000000000000000, -0.0000000000000000000 ) ) ;
#124 = EDGE_LOOP ( 'NONE', ( #114, #187, #105, #83 ) ) ;
#125 = PRODUCT_DEFINITION_FORMATION_WITH_SPECIFIED_SOURCE ( 'ANY', '', #259, .NOT_KNOWN. ) ;
#126 = AXIS2_PLACEMENT_3D ( 'NONE', #175, #22, #113 ) ;
#127 = FACE_OUTER_BOUND ( 'NONE', #203, .T. ) ;
#128 = AXIS2_PLACEMENT_3D ( 'NONE', #138, #264, #103 ) ;
#129 = CARTESIAN_POINT ( 'NONE',  ( -1.950000000000000000, 0.0000000000000000000, -25.14999999999999100 ) ) ;
#130 = VERTEX_POINT ( 'NONE', #182 ) ;
#131 = AXIS2_PLACEMENT_3D ( 'NONE', #292, #226, #289 ) ;
#132 = AXIS2_PLACEMENT_3D ( 'NONE', #115, #99, #14 ) ;
#133 = DIRECTION ( 'NONE',  ( 0.0000000000000000000, 0.0000000000000000000, 1.000000000000000000 ) ) ;
#134 = TOROIDAL_SURFACE ( 'NONE', #231, 0.4880043519013052000, 345.0999999999999700 ) ;
#135 = LINE ( 'NONE', #253, #272 ) ;
#136 = FACE_OUTER_BOUND ( 'NONE', #70, .T. ) ;
#137 = CYLINDRICAL_SURFACE ( 'NONE', #271, 25.39999999999996700 ) ;
#138 = CARTESIAN_POINT ( 'NONE',  ( -1.950000000000000000, 0.0000000000000000000, 0.0000000000000000000 ) ) ;
#139 = DIRECTION ( 'NONE',  ( -0.0000000000000000000, 1.000000000000000000, 1.224646799147353200E-016 ) ) ;
#140 = AXIS2_PLACEMENT_3D ( 'NONE', #199, #220, #118 ) ;
#141 = ORIENTED_EDGE ( 'NONE', *, *, #180, .F. ) ;
#142 = CARTESIAN_POINT ( 'NONE',  ( -1.950000000000000000, 0.0000000000000000000, 0.0000000000000000000 ) ) ;
#143 = FACE_OUTER_BOUND ( 'NONE', #18, .T. ) ;
#144 = DATE_AND_TIME ( #54, #228 ) ;
#145 = CONICAL_SURFACE ( 'NONE', #104, 25.39999999999996700, 0.7131475609274592300 ) ;
#146 = VECTOR ( 'NONE', #12, 1000.000000000000000 ) ;
#147 = DIRECTION ( 'NONE',  ( -1.000000000000000000, -0.0000000000000000000, -0.0000000000000000000 ) ) ;
#148 = DIRECTION ( 'NONE',  ( 0.0000000000000000000, 0.0000000000000000000, 1.000000000000000000 ) ) ;
#149 = DIRECTION ( 'NONE',  ( 1.000000000000000000, 0.0000000000000000000, 0.0000000000000000000 ) ) ;
#150 = CARTESIAN_POINT ( 'NONE',  ( 0.7797891176564153400, 3.110602869834273300E-015, -25.39999999999996700 ) ) ;
#151 = ADVANCED_FACE ( 'NONE', ( #108 ), #55, .T. ) ;
#152 = PERSON_AND_ORGANIZATION_ROLE ( 'classification_officer' ) ;
#153 = VERTEX_POINT ( 'NONE', #269 ) ;
#154 = LINE ( 'NONE', #90, #49 ) ;
#155 = CARTESIAN_POINT ( 'NONE',  ( -1.700000000000020600, 0.0000000000000000000, 25.39999999999996700 ) ) ;
#156 = DIRECTION ( 'NONE',  ( 1.000000000000000000, 0.0000000000000000000, 0.0000000000000000000 ) ) ;
#157 = EDGE_CURVE ( 'NONE', #153, #59, #74, .T. ) ;
#158 = ORIENTED_EDGE ( 'NONE', *, *, #89, .T. ) ;
#159 = AXIS2_PLACEMENT_3D ( 'NONE', #28, #123, #133 ) ;
#160 = PERSON_AND_ORGANIZATION_ROLE ( 'design_supplier' ) ;
#161 = CC_DESIGN_SECURITY_CLASSIFICATION ( #75, ( #125 ) ) ;
#162 = FACE_OUTER_BOUND ( 'NONE', #10, .T. ) ;
#163 = LINE ( 'NONE', #25, #238 ) ;
#164 = PLANE ( 'NONE',  #128 ) ;
#165 = DIRECTION ( 'NONE',  ( 1.000000000000000000, 0.0000000000000000000, 0.0000000000000000000 ) ) ;
#166 =( GEOMETRIC_REPRESENTATION_CONTEXT ( 3 ) GLOBAL_UNCERTAINTY_ASSIGNED_CONTEXT ( ( #34 ) ) GLOBAL_UNIT_ASSIGNED_CONTEXT ( ( #295, #270, #287 ) ) REPRESENTATION_CONTEXT ( 'NONE', 'WORKASPACE' ) );
#167 = DIRECTION ( 'NONE',  ( 0.0000000000000000000, 0.0000000000000000000, 1.000000000000000000 ) ) ;
#168 = MECHANICAL_CONTEXT ( 'NONE', #284, 'mechanical' ) ;
#169 = ORIENTED_EDGE ( 'NONE', *, *, #37, .T. ) ;
#170 = TOROIDAL_SURFACE ( 'NONE', #81, 0.4880043519013052000, 345.0999999999999700 ) ;
#171 = MANIFOLD_SOLID_BREP ( '4300-001-1-solid1', #177 ) ;
#172 = CARTESIAN_POINT ( 'NONE',  ( 0.7797891176564153400, 0.0000000000000000000, 0.0000000000000000000 ) ) ;
#173 = CC_DESIGN_PERSON_AND_ORGANIZATION_ASSIGNMENT ( #174, #152, ( #75 ) ) ;
#174 = PERSON_AND_ORGANIZATION ( #273, #78 ) ;
#175 = CARTESIAN_POINT ( 'NONE',  ( -1.950000000000000000, 0.0000000000000000000, 0.0000000000000000000 ) ) ;
#176 = AXIS2_PLACEMENT_3D ( 'NONE', #91, #139, #211 ) ;
#177 = CLOSED_SHELL ( 'NONE', ( #209, #151, #31, #207, #223, #252, #245, #301, #97 ) ) ;
#178 = APPROVAL_DATE_TIME ( #183, #98 ) ;
#179 = PERSON_AND_ORGANIZATION ( #273, #78 ) ;
#180 = EDGE_CURVE ( 'NONE', #120, #53, #20, .T. ) ;
#181 = CC_DESIGN_APPROVAL ( #30, ( #125 ) ) ;
#182 = CARTESIAN_POINT ( 'NONE',  ( 1.950000000000000000, 0.0000000000000000000, 0.0000000000000000000 ) ) ;
#183 = DATE_AND_TIME ( #258, #193 ) ;
#184 = DIRECTION ( 'NONE',  ( 0.7071067811865524600, 0.0000000000000000000, -0.7071067811865426900 ) ) ;
#185 = EDGE_CURVE ( 'NONE', #153, #285, #121, .T. ) ;
#186 = DIRECTION ( 'NONE',  ( 0.0000000000000000000, 0.0000000000000000000, -1.000000000000000000 ) ) ;
#187 = ORIENTED_EDGE ( 'NONE', *, *, #180, .T. ) ;
#188 = COORDINATED_UNIVERSAL_TIME_OFFSET ( 5, 0, .BEHIND. ) ;
#189 = DIRECTION ( 'NONE',  ( 0.0000000000000000000, 0.0000000000000000000, 1.000000000000000000 ) ) ;
#190 = FACE_OUTER_BOUND ( 'NONE', #192, .T. ) ;
#191 = ORIENTED_EDGE ( 'NONE', *, *, #246, .T. ) ;
#192 = EDGE_LOOP ( 'NONE', ( #280, #100, #201 ) ) ;
#193 = LOCAL_TIME ( 10, 17, 12.00000000000000000, #188 ) ;
#194 = VECTOR ( 'NONE', #224, 1000.000000000000000 ) ;
#195 = CC_DESIGN_APPROVAL ( #98, ( #75 ) ) ;
#196 = CALENDAR_DATE ( 2015, 29, 5 ) ;
#197 = CALENDAR_DATE ( 2015, 29, 5 ) ;
#198 = APPROVAL_ROLE ( '' ) ;
#199 = CARTESIAN_POINT ( 'NONE',  ( -1.950000000000000000, 0.0000000000000000000, 0.0000000000000000000 ) ) ;
#200 = ORIENTED_EDGE ( 'NONE', *, *, #157, .T. ) ;
#201 = ORIENTED_EDGE ( 'NONE', *, *, #110, .T. ) ;
#202 = ORIENTED_EDGE ( 'NONE', *, *, #84, .T. ) ;
#203 = EDGE_LOOP ( 'NONE', ( #50, #77, #158, #62 ) ) ;
#204 = CC_DESIGN_PERSON_AND_ORGANIZATION_ASSIGNMENT ( #27, #32, ( #259 ) ) ;
#205 = CARTESIAN_POINT ( 'NONE',  ( -1.700000000000020600, 3.110602869834273300E-015, -25.39999999999996700 ) ) ;
#206 = COORDINATED_UNIVERSAL_TIME_OFFSET ( 5, 0, .BEHIND. ) ;
#207 = ADVANCED_FACE ( 'NONE', ( #162 ), #137, .T. ) ;
#208 = ORIENTED_EDGE ( 'NONE', *, *, #286, .T. ) ;
#209 = ADVANCED_FACE ( 'NONE', ( #225 ), #294, .T. ) ;
#210 = PERSON_AND_ORGANIZATION_ROLE ( 'creator' ) ;
#211 = DIRECTION ( 'NONE',  ( 0.0000000000000000000, -1.224646799147353200E-016, 1.000000000000000000 ) ) ;
#212 = CC_DESIGN_PERSON_AND_ORGANIZATION_ASSIGNMENT ( #277, #39, ( #125 ) ) ;
#213 = CARTESIAN_POINT ( 'NONE',  ( 1.067950155813984800, 0.0000000000000000000, 25.15073595421189600 ) ) ;
#214 = CARTESIAN_POINT ( 'NONE',  ( -1.700000000000020600, 0.0000000000000000000, 0.0000000000000000000 ) ) ;
#215 = CIRCLE ( 'NONE', #176, 345.0999999999999700 ) ;
#216 = CIRCLE ( 'NONE', #111, 25.39999999999996700 ) ;
#217 = APPROVAL_PERSON_ORGANIZATION ( #179, #30, #293 ) ;
#218 = ORIENTED_EDGE ( 'NONE', *, *, #5, .T. ) ;
#219 = APPROVAL_PERSON_ORGANIZATION ( #244, #98, #254 ) ;
#220 = DIRECTION ( 'NONE',  ( 1.000000000000000000, 0.0000000000000000000, 0.0000000000000000000 ) ) ;
#221 = PRODUCT_RELATED_PRODUCT_CATEGORY ( 'detail', '', ( #259 ) ) ;
#222 = ORIENTED_EDGE ( 'NONE', *, *, #80, .F. ) ;
#223 = ADVANCED_FACE ( 'NONE', ( #136 ), #164, .F. ) ;
#224 = DIRECTION ( 'NONE',  ( -0.7563064362739071500, 8.011854020869799600E-017, -0.6542175283884271700 ) ) ;
#225 = FACE_OUTER_BOUND ( 'NONE', #124, .T. ) ;
#226 = DIRECTION ( 'NONE',  ( -1.000000000000000000, -0.0000000000000000000, -0.0000000000000000000 ) ) ;
#227 = APPROVAL_STATUS ( 'not_yet_approved' ) ;
#228 = LOCAL_TIME ( 10, 17, 12.00000000000000000, #206 ) ;
#229 = DIRECTION ( 'NONE',  ( 0.0000000000000000000, 0.0000000000000000000, 1.000000000000000000 ) ) ;
#230 = AXIS2_PLACEMENT_3D ( 'NONE', #1, #67, #149 ) ;
#231 = AXIS2_PLACEMENT_3D ( 'NONE', #85, #76, #189 ) ;
#232 = ORIENTED_EDGE ( 'NONE', *, *, #26, .F. ) ;
#233 = COORDINATED_UNIVERSAL_TIME_OFFSET ( 5, 0, .BEHIND. ) ;
#234 = DIRECTION ( 'NONE',  ( -1.000000000000000000, -0.0000000000000000000, -0.0000000000000000000 ) ) ;
#235 = EDGE_CURVE ( 'NONE', #59, #266, #96, .T. ) ;
#236 = DATE_AND_TIME ( #29, #300 ) ;
#237 = DIRECTION ( 'NONE',  ( -1.000000000000000000, -0.0000000000000000000, -0.0000000000000000000 ) ) ;
#238 = VECTOR ( 'NONE', #147, 1000.000000000000000 ) ;
#239 = COORDINATED_UNIVERSAL_TIME_OFFSET ( 5, 0, .BEHIND. ) ;
#240 = DIRECTION ( 'NONE',  ( 0.7071067811865524600, 8.659560562354874900E-017, 0.7071067811865426900 ) ) ;
#241 = APPROVAL ( #227, 'UNSPECIFIED' ) ;
#242 = AXIS2_PLACEMENT_3D ( 'NONE', #47, #275, #186 ) ;
#243 = ORIENTED_EDGE ( 'NONE', *, *, #42, .T. ) ;
#244 = PERSON_AND_ORGANIZATION ( #273, #78 ) ;
#245 = ADVANCED_FACE ( 'NONE', ( #190 ), #170, .T. ) ;
#246 = EDGE_CURVE ( 'NONE', #53, #119, #52, .T. ) ;
#247 = PRODUCT_DEFINITION ( 'UNKNOWN', '', #125, #291 ) ;
#248 = APPLICATION_PROTOCOL_DEFINITION ( 'international standard', 'config_control_design', 1994, #274 ) ;
#249 = ORIENTED_EDGE ( 'NONE', *, *, #246, .F. ) ;
#250 = CONICAL_SURFACE ( 'NONE', #132, 25.14999999999999100, 0.7853981633974415100 ) ;
#251 = FACE_OUTER_BOUND ( 'NONE', #19, .T. ) ;
#252 = ADVANCED_FACE ( 'NONE', ( #251 ), #299, .T. ) ;
#253 = CARTESIAN_POINT ( 'NONE',  ( -1.950000000000000000, 0.0000000000000000000, -25.14999999999999100 ) ) ;
#254 = APPROVAL_ROLE ( '' ) ;
#255 = CC_DESIGN_DATE_AND_TIME_ASSIGNMENT ( #41, #276, ( #75 ) ) ;
#256 = DIRECTION ( 'NONE',  ( -0.7563064362739071500, 0.0000000000000000000, 0.6542175283884271700 ) ) ;
#257 = ORIENTED_EDGE ( 'NONE', *, *, #37, .F. ) ;
#258 = CALENDAR_DATE ( 2015, 29, 5 ) ;
#259 = PRODUCT ( '4300-E0W', '4300-E0W', '', ( #168 ) ) ;
#260 = DIRECTION ( 'NONE',  ( 0.0000000000000000000, 0.0000000000000000000, -1.000000000000000000 ) ) ;
#261 = LINE ( 'NONE', #88, #146 ) ;
#262 = ORIENTED_EDGE ( 'NONE', *, *, #185, .T. ) ;
#263 = APPROVAL_PERSON_ORGANIZATION ( #101, #241, #198 ) ;
#264 = DIRECTION ( 'NONE',  ( 1.000000000000000000, 0.0000000000000000000, 0.0000000000000000000 ) ) ;
#265 = CC_DESIGN_PERSON_AND_ORGANIZATION_ASSIGNMENT ( #102, #210, ( #247 ) ) ;
#266 = VERTEX_POINT ( 'NONE', #66 ) ;
#267 = ORIENTED_EDGE ( 'NONE', *, *, #33, .T. ) ;
#268 = DATE_AND_TIME ( #196, #24 ) ;
#269 = CARTESIAN_POINT ( 'NONE',  ( 1.067950155813984800, 3.080076828252585500E-015, -25.15073595421189600 ) ) ;
#270 =( NAMED_UNIT ( * ) PLANE_ANGLE_UNIT ( ) SI_UNIT ( $, .RADIAN. ) );
#271 = AXIS2_PLACEMENT_3D ( 'NONE', #6, #237, #167 ) ;
#272 = VECTOR ( 'NONE', #184, 1000.000000000000000 ) ;
#273 = PERSON ( 'UNSPECIFIED', 'UNSPECIFIED', 'UNSPECIFIED', ('UNSPECIFIED'), ('UNSPECIFIED'), ('UNSPECIFIED') ) ;
#274 = APPLICATION_CONTEXT ( 'configuration controlled 3d designs of mechanical parts and assemblies' ) ;
#275 = DIRECTION ( 'NONE',  ( 0.0000000000000000000, -1.000000000000000000, 0.0000000000000000000 ) ) ;
#276 = DATE_TIME_ROLE ( 'classification_date' ) ;
#277 = PERSON_AND_ORGANIZATION ( #273, #78 ) ;
#278 = APPLICATION_PROTOCOL_DEFINITION ( 'international standard', 'config_control_design', 1994, #284 ) ;
#279 = CC_DESIGN_APPROVAL ( #241, ( #247 ) ) ;
#280 = ORIENTED_EDGE ( 'NONE', *, *, #84, .F. ) ;
#281 = CIRCLE ( 'NONE', #242, 345.0999999999999700 ) ;
#282 = DIRECTION ( 'NONE',  ( 0.0000000000000000000, 0.0000000000000000000, 1.000000000000000000 ) ) ;
#283 = VECTOR ( 'NONE', #240, 1000.000000000000000 ) ;
#284 = APPLICATION_CONTEXT ( 'configuration controlled 3d designs of mechanical parts and assemblies' ) ;
#285 = VERTEX_POINT ( 'NONE', #213 ) ;
#286 = EDGE_CURVE ( 'NONE', #119, #53, #216, .T. ) ;
#287 =( NAMED_UNIT ( * ) SI_UNIT ( $, .STERADIAN. ) SOLID_ANGLE_UNIT ( ) );
#288 = DIRECTION ( 'NONE',  ( -1.000000000000000000, -0.0000000000000000000, -0.0000000000000000000 ) ) ;
#289 = DIRECTION ( 'NONE',  ( 0.0000000000000000000, 0.0000000000000000000, 1.000000000000000000 ) ) ;
#290 = CC_DESIGN_PERSON_AND_ORGANIZATION_ASSIGNMENT ( #9, #160, ( #125 ) ) ;
#291 = DESIGN_CONTEXT ( 'detailed design', #274, 'design' ) ;
#292 = CARTESIAN_POINT ( 'NONE',  ( -1.950000000000000000, 0.0000000000000000000, 0.0000000000000000000 ) ) ;
#293 = APPROVAL_ROLE ( '' ) ;
#294 = CONICAL_SURFACE ( 'NONE', #140, 25.14999999999999100, 0.7853981633974415100 ) ;
#295 =( LENGTH_UNIT ( ) NAMED_UNIT ( * ) SI_UNIT ( .MILLI., .METRE. ) );
#296 = DIRECTION ( 'NONE',  ( 0.0000000000000000000, 0.0000000000000000000, -1.000000000000000000 ) ) ;
#297 = DIRECTION ( 'NONE',  ( -1.000000000000000000, -0.0000000000000000000, -0.0000000000000000000 ) ) ;
#298 = ORIENTED_EDGE ( 'NONE', *, *, #42, .F. ) ;
#299 = CYLINDRICAL_SURFACE ( 'NONE', #131, 25.39999999999996700 ) ;
#300 = LOCAL_TIME ( 10, 17, 12.00000000000000000, #233 ) ;
#301 = ADVANCED_FACE ( 'NONE', ( #127 ), #145, .T. ) ;
ENDSEC;
END-ISO-10303-21;
