ISO-10303-21;
HEADER;
FILE_DESCRIPTION (( 'STEP AP203' ),
    '1' );
FILE_NAME ('Web Model 83359_83362.step',
    '2017-04-26T17:35:01',
    ( '' ),
    ( '' ),
    'SwSTEP 2.0',
    'SolidWorks 2016',
    '' );
FILE_SCHEMA (( 'CONFIG_CONTROL_DESIGN' ));
ENDSEC;

DATA;
#1 = DIRECTION ( 'NONE',  ( 0.0000000000000000000, 0.0000000000000000000, 1.000000000000000000 ) ) ;
#2 = EDGE_LOOP ( 'NONE', ( #89, #124, #121, #146 ) ) ;
#3 = PERSON_AND_ORGANIZATION_ROLE ( 'creator' ) ;
#4 =( LENGTH_UNIT ( ) NAMED_UNIT ( * ) SI_UNIT ( .MILLI., .METRE. ) );
#5 = SECURITY_CLASSIFICATION ( '', '', #116 ) ;
#6 = LINE ( 'NONE', #62, #95 ) ;
#7 = DIRECTION ( 'NONE',  ( 0.0000000000000000000, 0.0000000000000000000, 1.000000000000000000 ) ) ;
#8 = CC_DESIGN_PERSON_AND_ORGANIZATION_ASSIGNMENT ( #23, #22, ( #37 ) ) ;
#9 = CARTESIAN_POINT ( 'NONE',  ( 10.00000000000000000, 1.224646799147353300E-015, 0.0000000000000000000 ) ) ;
#10 = DIRECTION ( 'NONE',  ( 0.0000000000000000000, 0.0000000000000000000, 1.000000000000000000 ) ) ;
#11 =( NAMED_UNIT ( * ) SI_UNIT ( $, .STERADIAN. ) SOLID_ANGLE_UNIT ( ) );
#12 = CALENDAR_DATE ( 2017, 26, 4 ) ;
#13 = LOCAL_TIME ( 13, 35, 1.000000000000000000, #16 ) ;
#14 = CARTESIAN_POINT ( 'NONE',  ( 0.0000000000000000000, 0.0000000000000000000, 1.100000000000000100 ) ) ;
#15 = ORGANIZATION ( 'UNSPECIFIED', 'UNSPECIFIED', '' ) ;
#16 = COORDINATED_UNIVERSAL_TIME_OFFSET ( 5, 0, .BEHIND. ) ;
#17 = ADVANCED_FACE ( 'NONE', ( #173 ), #171, .T. ) ;
#18 = LINE ( 'NONE', #51, #106 ) ;
#19 = CYLINDRICAL_SURFACE ( 'NONE', #65, 10.00000000000000000 ) ;
#20 = CC_DESIGN_PERSON_AND_ORGANIZATION_ASSIGNMENT ( #98, #3, ( #37 ) ) ;
#21 = LOCAL_TIME ( 13, 35, 1.000000000000000000, #78 ) ;
#22 = PERSON_AND_ORGANIZATION_ROLE ( 'design_supplier' ) ;
#23 = PERSON_AND_ORGANIZATION ( #35, #15 ) ;
#24 = SHAPE_DEFINITION_REPRESENTATION ( #174, #31 ) ;
#25 = APPROVAL_DATE_TIME ( #170, #42 ) ;
#26 = CC_DESIGN_APPROVAL ( #43, ( #37 ) ) ;
#27 = FACE_OUTER_BOUND ( 'NONE', #90, .T. ) ;
#28 = EDGE_LOOP ( 'NONE', ( #139, #130, #142, #136 ) ) ;
#29 = PRODUCT_DEFINITION ( 'UNKNOWN', '', #37, #156 ) ;
#30 = DATE_AND_TIME ( #69, #13 ) ;
#31 = ADVANCED_BREP_SHAPE_REPRESENTATION ( 'Web Model 83359_83362', ( #66, #134 ), #79 ) ;
#32 = APPLICATION_PROTOCOL_DEFINITION ( 'international standard', 'config_control_design', 1994, #67 ) ;
#33 = APPROVAL_STATUS ( 'not_yet_approved' ) ;
#34 = CC_DESIGN_PERSON_AND_ORGANIZATION_ASSIGNMENT ( #39, #101, ( #29 ) ) ;
#35 = PERSON ( 'UNSPECIFIED', 'UNSPECIFIED', 'UNSPECIFIED', ('UNSPECIFIED'), ('UNSPECIFIED'), ('UNSPECIFIED') ) ;
#36 = CARTESIAN_POINT ( 'NONE',  ( -10.00000000000000000, 0.0000000000000000000, 1.100000000000000100 ) ) ;
#37 = PRODUCT_DEFINITION_FORMATION_WITH_SPECIFIED_SOURCE ( 'ANY', '', #149, .NOT_KNOWN. ) ;
#38 = CC_DESIGN_DATE_AND_TIME_ASSIGNMENT ( #30, #54, ( #29 ) ) ;
#39 = PERSON_AND_ORGANIZATION ( #35, #15 ) ;
#40 = CALENDAR_DATE ( 2017, 26, 4 ) ;
#41 = PRODUCT_RELATED_PRODUCT_CATEGORY ( 'detail', '', ( #149 ) ) ;
#42 = APPROVAL ( #88, 'UNSPECIFIED' ) ;
#43 = APPROVAL ( #33, 'UNSPECIFIED' ) ;
#44 = VERTEX_POINT ( 'NONE', #9 ) ;
#45 = CC_DESIGN_APPROVAL ( #42, ( #29 ) ) ;
#46 = CARTESIAN_POINT ( 'NONE',  ( 0.0000000000000000000, 0.0000000000000000000, 0.0000000000000000000 ) ) ;
#47 = PERSON_AND_ORGANIZATION ( #35, #15 ) ;
#48 = CC_DESIGN_SECURITY_CLASSIFICATION ( #5, ( #37 ) ) ;
#49 = CARTESIAN_POINT ( 'NONE',  ( -10.00000000000000000, 0.0000000000000000000, 0.0000000000000000000 ) ) ;
#50 = ADVANCED_FACE ( 'NONE', ( #27 ), #154, .F. ) ;
#51 = CARTESIAN_POINT ( 'NONE',  ( -10.00000000000000000, 0.0000000000000000000, 1.100000000000000100 ) ) ;
#52 = COORDINATED_UNIVERSAL_TIME_OFFSET ( 5, 0, .BEHIND. ) ;
#53 = CARTESIAN_POINT ( 'NONE',  ( 0.0000000000000000000, 0.0000000000000000000, 0.0000000000000000000 ) ) ;
#54 = DATE_TIME_ROLE ( 'creation_date' ) ;
#55 = DATE_AND_TIME ( #115, #21 ) ;
#56 = CC_DESIGN_PERSON_AND_ORGANIZATION_ASSIGNMENT ( #153, #120, ( #149 ) ) ;
#57 = CC_DESIGN_APPROVAL ( #72, ( #5 ) ) ;
#58 = APPLICATION_PROTOCOL_DEFINITION ( 'international standard', 'config_control_design', 1994, #64 ) ;
#59 = APPROVAL_ROLE ( '' ) ;
#60 = VERTEX_POINT ( 'NONE', #71 ) ;
#61 = CIRCLE ( 'NONE', #141, 10.00000000000000000 ) ;
#62 = CARTESIAN_POINT ( 'NONE',  ( 10.00000000000000000, 1.224646799147353300E-015, 1.100000000000000100 ) ) ;
#63 = CARTESIAN_POINT ( 'NONE',  ( 0.0000000000000000000, 0.0000000000000000000, 1.100000000000000100 ) ) ;
#64 = APPLICATION_CONTEXT ( 'configuration controlled 3d designs of mechanical parts and assemblies' ) ;
#65 = AXIS2_PLACEMENT_3D ( 'NONE', #14, #70, #76 ) ;
#66 = MANIFOLD_SOLID_BREP ( 'Boss-Extrude1', #87 ) ;
#67 = APPLICATION_CONTEXT ( 'configuration controlled 3d designs of mechanical parts and assemblies' ) ;
#68 = PERSON_AND_ORGANIZATION ( #35, #15 ) ;
#69 = CALENDAR_DATE ( 2017, 26, 4 ) ;
#70 = DIRECTION ( 'NONE',  ( -0.0000000000000000000, -0.0000000000000000000, -1.000000000000000000 ) ) ;
#71 = CARTESIAN_POINT ( 'NONE',  ( 10.00000000000000000, 1.224646799147353300E-015, 1.100000000000000100 ) ) ;
#72 = APPROVAL ( #148, 'UNSPECIFIED' ) ;
#73 = DATE_AND_TIME ( #12, #108 ) ;
#74 = CIRCLE ( 'NONE', #168, 10.00000000000000000 ) ;
#75 = AXIS2_PLACEMENT_3D ( 'NONE', #81, #1, #112 ) ;
#76 = DIRECTION ( 'NONE',  ( -1.000000000000000000, 0.0000000000000000000, 0.0000000000000000000 ) ) ;
#77 = ORIENTED_EDGE ( 'NONE', *, *, #122, .F. ) ;
#78 = COORDINATED_UNIVERSAL_TIME_OFFSET ( 5, 0, .BEHIND. ) ;
#79 =( GEOMETRIC_REPRESENTATION_CONTEXT ( 3 ) GLOBAL_UNCERTAINTY_ASSIGNED_CONTEXT ( ( #172 ) ) GLOBAL_UNIT_ASSIGNED_CONTEXT ( ( #4, #104, #11 ) ) REPRESENTATION_CONTEXT ( 'NONE', 'WORKASPACE' ) );
#80 = DIRECTION ( 'NONE',  ( -1.000000000000000000, 0.0000000000000000000, 0.0000000000000000000 ) ) ;
#81 = CARTESIAN_POINT ( 'NONE',  ( 0.0000000000000000000, 0.0000000000000000000, 1.100000000000000100 ) ) ;
#82 = CARTESIAN_POINT ( 'NONE',  ( 0.0000000000000000000, 0.0000000000000000000, 1.100000000000000100 ) ) ;
#83 = CARTESIAN_POINT ( 'NONE',  ( 0.0000000000000000000, 0.0000000000000000000, 1.100000000000000100 ) ) ;
#84 = MECHANICAL_CONTEXT ( 'NONE', #67, 'mechanical' ) ;
#85 = DIRECTION ( 'NONE',  ( -0.0000000000000000000, -0.0000000000000000000, -1.000000000000000000 ) ) ;
#86 = PERSON_AND_ORGANIZATION ( #35, #15 ) ;
#87 = CLOSED_SHELL ( 'NONE', ( #113, #167, #17, #50 ) ) ;
#88 = APPROVAL_STATUS ( 'not_yet_approved' ) ;
#89 = ORIENTED_EDGE ( 'NONE', *, *, #155, .F. ) ;
#90 = EDGE_LOOP ( 'NONE', ( #97, #77 ) ) ;
#91 = DIRECTION ( 'NONE',  ( 1.000000000000000000, 0.0000000000000000000, 0.0000000000000000000 ) ) ;
#92 = DIRECTION ( 'NONE',  ( 0.0000000000000000000, 0.0000000000000000000, 1.000000000000000000 ) ) ;
#93 = DIRECTION ( 'NONE',  ( 0.0000000000000000000, 0.0000000000000000000, 1.000000000000000000 ) ) ;
#94 = AXIS2_PLACEMENT_3D ( 'NONE', #82, #157, #80 ) ;
#95 = VECTOR ( 'NONE', #85, 1000.000000000000000 ) ;
#96 = APPROVAL_ROLE ( '' ) ;
#97 = ORIENTED_EDGE ( 'NONE', *, *, #110, .F. ) ;
#98 = PERSON_AND_ORGANIZATION ( #35, #15 ) ;
#99 = FACE_OUTER_BOUND ( 'NONE', #2, .T. ) ;
#100 = EDGE_CURVE ( 'NONE', #129, #144, #18, .T. ) ;
#101 = PERSON_AND_ORGANIZATION_ROLE ( 'creator' ) ;
#102 = FACE_OUTER_BOUND ( 'NONE', #28, .T. ) ;
#103 = DATE_TIME_ROLE ( 'classification_date' ) ;
#104 =( NAMED_UNIT ( * ) PLANE_ANGLE_UNIT ( ) SI_UNIT ( $, .RADIAN. ) );
#105 = CYLINDRICAL_SURFACE ( 'NONE', #94, 10.00000000000000000 ) ;
#106 = VECTOR ( 'NONE', #152, 1000.000000000000000 ) ;
#107 = CIRCLE ( 'NONE', #75, 10.00000000000000000 ) ;
#108 = LOCAL_TIME ( 13, 35, 1.000000000000000000, #52 ) ;
#109 = CIRCLE ( 'NONE', #118, 10.00000000000000000 ) ;
#110 = EDGE_CURVE ( 'NONE', #144, #44, #74, .T. ) ;
#111 = EDGE_LOOP ( 'NONE', ( #117, #137 ) ) ;
#112 = DIRECTION ( 'NONE',  ( 1.000000000000000000, 0.0000000000000000000, 0.0000000000000000000 ) ) ;
#113 = ADVANCED_FACE ( 'NONE', ( #99 ), #19, .T. ) ;
#114 = DIRECTION ( 'NONE',  ( 0.0000000000000000000, 0.0000000000000000000, 1.000000000000000000 ) ) ;
#115 = CALENDAR_DATE ( 2017, 26, 4 ) ;
#116 = SECURITY_CLASSIFICATION_LEVEL ( 'unclassified' ) ;
#117 = ORIENTED_EDGE ( 'NONE', *, *, #147, .T. ) ;
#118 = AXIS2_PLACEMENT_3D ( 'NONE', #63, #92, #91 ) ;
#119 = LOCAL_TIME ( 13, 35, 1.000000000000000000, #131 ) ;
#120 = PERSON_AND_ORGANIZATION_ROLE ( 'design_owner' ) ;
#121 = ORIENTED_EDGE ( 'NONE', *, *, #122, .T. ) ;
#122 = EDGE_CURVE ( 'NONE', #44, #144, #61, .T. ) ;
#123 = DIRECTION ( 'NONE',  ( 1.000000000000000000, 0.0000000000000000000, -0.0000000000000000000 ) ) ;
#124 = ORIENTED_EDGE ( 'NONE', *, *, #151, .T. ) ;
#125 = DIRECTION ( 'NONE',  ( 1.000000000000000000, 0.0000000000000000000, 0.0000000000000000000 ) ) ;
#126 = DIRECTION ( 'NONE',  ( 1.000000000000000000, 0.0000000000000000000, 0.0000000000000000000 ) ) ;
#127 = CC_DESIGN_DATE_AND_TIME_ASSIGNMENT ( #135, #103, ( #5 ) ) ;
#128 = DIRECTION ( 'NONE',  ( 0.0000000000000000000, 0.0000000000000000000, 1.000000000000000000 ) ) ;
#129 = VERTEX_POINT ( 'NONE', #36 ) ;
#130 = ORIENTED_EDGE ( 'NONE', *, *, #147, .F. ) ;
#131 = COORDINATED_UNIVERSAL_TIME_OFFSET ( 5, 0, .BEHIND. ) ;
#132 = CARTESIAN_POINT ( 'NONE',  ( 0.0000000000000000000, 0.0000000000000000000, 0.0000000000000000000 ) ) ;
#133 = APPROVAL_ROLE ( '' ) ;
#134 = AXIS2_PLACEMENT_3D ( 'NONE', #53, #114, #169 ) ;
#135 = DATE_AND_TIME ( #40, #119 ) ;
#136 = ORIENTED_EDGE ( 'NONE', *, *, #110, .T. ) ;
#137 = ORIENTED_EDGE ( 'NONE', *, *, #155, .T. ) ;
#138 = APPROVAL_DATE_TIME ( #73, #43 ) ;
#139 = ORIENTED_EDGE ( 'NONE', *, *, #151, .F. ) ;
#140 = CC_DESIGN_PERSON_AND_ORGANIZATION_ASSIGNMENT ( #68, #143, ( #5 ) ) ;
#141 = AXIS2_PLACEMENT_3D ( 'NONE', #162, #7, #126 ) ;
#142 = ORIENTED_EDGE ( 'NONE', *, *, #100, .T. ) ;
#143 = PERSON_AND_ORGANIZATION_ROLE ( 'classification_officer' ) ;
#144 = VERTEX_POINT ( 'NONE', #49 ) ;
#145 = DIRECTION ( 'NONE',  ( 1.000000000000000000, 0.0000000000000000000, -0.0000000000000000000 ) ) ;
#146 = ORIENTED_EDGE ( 'NONE', *, *, #100, .F. ) ;
#147 = EDGE_CURVE ( 'NONE', #129, #60, #109, .T. ) ;
#148 = APPROVAL_STATUS ( 'not_yet_approved' ) ;
#149 = PRODUCT ( 'Web Model 83359_83362', 'Web Model 83359_83362', '', ( #84 ) ) ;
#150 = APPROVAL_PERSON_ORGANIZATION ( #47, #72, #59 ) ;
#151 = EDGE_CURVE ( 'NONE', #60, #44, #6, .T. ) ;
#152 = DIRECTION ( 'NONE',  ( -0.0000000000000000000, -0.0000000000000000000, -1.000000000000000000 ) ) ;
#153 = PERSON_AND_ORGANIZATION ( #35, #15 ) ;
#154 = PLANE ( 'NONE',  #175 ) ;
#155 = EDGE_CURVE ( 'NONE', #60, #129, #107, .T. ) ;
#156 = DESIGN_CONTEXT ( 'detailed design', #64, 'design' ) ;
#157 = DIRECTION ( 'NONE',  ( -0.0000000000000000000, -0.0000000000000000000, -1.000000000000000000 ) ) ;
#158 = APPROVAL_PERSON_ORGANIZATION ( #86, #43, #133 ) ;
#159 = PERSON_AND_ORGANIZATION ( #35, #15 ) ;
#160 = APPROVAL_PERSON_ORGANIZATION ( #159, #42, #96 ) ;
#161 = COORDINATED_UNIVERSAL_TIME_OFFSET ( 5, 0, .BEHIND. ) ;
#162 = CARTESIAN_POINT ( 'NONE',  ( 0.0000000000000000000, 0.0000000000000000000, 0.0000000000000000000 ) ) ;
#163 = APPROVAL_DATE_TIME ( #55, #72 ) ;
#164 = AXIS2_PLACEMENT_3D ( 'NONE', #83, #93, #123 ) ;
#165 = LOCAL_TIME ( 13, 35, 1.000000000000000000, #161 ) ;
#166 = CALENDAR_DATE ( 2017, 26, 4 ) ;
#167 = ADVANCED_FACE ( 'NONE', ( #102 ), #105, .T. ) ;
#168 = AXIS2_PLACEMENT_3D ( 'NONE', #132, #128, #125 ) ;
#169 = DIRECTION ( 'NONE',  ( 1.000000000000000000, 0.0000000000000000000, 0.0000000000000000000 ) ) ;
#170 = DATE_AND_TIME ( #166, #165 ) ;
#171 = PLANE ( 'NONE',  #164 ) ;
#172 = UNCERTAINTY_MEASURE_WITH_UNIT (LENGTH_MEASURE( 1.000000000000000100E-005 ), #4, 'distance_accuracy_value', 'NONE');
#173 = FACE_OUTER_BOUND ( 'NONE', #111, .T. ) ;
#174 = PRODUCT_DEFINITION_SHAPE ( 'NONE', 'NONE',  #29 ) ;
#175 = AXIS2_PLACEMENT_3D ( 'NONE', #46, #10, #145 ) ;
ENDSEC;
END-ISO-10303-21;
