ISO-10303-21;
HEADER;
FILE_DESCRIPTION (( 'STEP AP203' ),
    '1' );
FILE_NAME ('Web Model 15467_15471.step',
    '2020-08-11T20:42:23',
    ( '' ),
    ( '' ),
    'SwSTEP 2.0',
    'SolidWorks 2018',
    '' );
FILE_SCHEMA (( 'CONFIG_CONTROL_DESIGN' ));
ENDSEC;

DATA;
#1 = DIRECTION ( 'NONE',  ( 0.0000000000000000000, 0.0000000000000000000, 1.000000000000000000 ) ) ;
#2 = APPROVAL_DATE_TIME ( #86, #28 ) ;
#3 = ORIENTED_EDGE ( 'NONE', *, *, #47, .F. ) ;
#4 = APPLICATION_CONTEXT ( 'configuration controlled 3d designs of mechanical parts and assemblies' ) ;
#5 = DATE_TIME_ROLE ( 'classification_date' ) ;
#6 = PERSON_AND_ORGANIZATION_ROLE ( 'design_owner' ) ;
#7 = VERTEX_POINT ( 'NONE', #160 ) ;
#8 = ADVANCED_FACE ( 'NONE', ( #61 ), #44, .T. ) ;
#9 = CALENDAR_DATE ( 2020, 11, 8 ) ;
#10 = DATE_AND_TIME ( #143, #27 ) ;
#11 = CIRCLE ( 'NONE', #53, 12.50000000000000000 ) ;
#12 = PRODUCT_RELATED_PRODUCT_CATEGORY ( 'detail', '', ( #113 ) ) ;
#13 = EDGE_CURVE ( 'NONE', #22, #92, #55, .T. ) ;
#14 = PERSON_AND_ORGANIZATION ( #25, #34 ) ;
#15 = CYLINDRICAL_SURFACE ( 'NONE', #95, 12.50000000000000000 ) ;
#16 = APPROVAL_PERSON_ORGANIZATION ( #69, #28, #130 ) ;
#17 = DIRECTION ( 'NONE',  ( 1.000000000000000000, 0.0000000000000000000, 0.0000000000000000000 ) ) ;
#18 = DIRECTION ( 'NONE',  ( 1.000000000000000000, 0.0000000000000000000, -0.0000000000000000000 ) ) ;
#19 = AXIS2_PLACEMENT_3D ( 'NONE', #94, #161, #18 ) ;
#20 = CARTESIAN_POINT ( 'NONE',  ( 0.0000000000000000000, 0.0000000000000000000, -1.500000000000000000 ) ) ;
#21 = ADVANCED_FACE ( 'NONE', ( #146 ), #15, .T. ) ;
#22 = VERTEX_POINT ( 'NONE', #31 ) ;
#23 =( NAMED_UNIT ( * ) PLANE_ANGLE_UNIT ( ) SI_UNIT ( $, .RADIAN. ) );
#24 = APPLICATION_PROTOCOL_DEFINITION ( 'international standard', 'config_control_design', 1994, #4 ) ;
#25 = PERSON ( 'UNSPECIFIED', 'UNSPECIFIED', 'UNSPECIFIED', ('UNSPECIFIED'), ('UNSPECIFIED'), ('UNSPECIFIED') ) ;
#26 = CC_DESIGN_APPROVAL ( #168, ( #128 ) ) ;
#27 = LOCAL_TIME ( 16, 42, 23.00000000000000000, #120 ) ;
#28 = APPROVAL ( #87, 'UNSPECIFIED' ) ;
#29 = AXIS2_PLACEMENT_3D ( 'NONE', #32, #163, #148 ) ;
#30 = ORIENTED_EDGE ( 'NONE', *, *, #60, .T. ) ;
#31 = CARTESIAN_POINT ( 'NONE',  ( -12.50000000000000000, 0.0000000000000000000, 1.500000000000000000 ) ) ;
#32 = CARTESIAN_POINT ( 'NONE',  ( 0.0000000000000000000, 0.0000000000000000000, 1.500000000000000000 ) ) ;
#33 = CC_DESIGN_SECURITY_CLASSIFICATION ( #128, ( #71 ) ) ;
#34 = ORGANIZATION ( 'UNSPECIFIED', 'UNSPECIFIED', '' ) ;
#35 =( LENGTH_UNIT ( ) NAMED_UNIT ( * ) SI_UNIT ( .MILLI., .METRE. ) );
#36 = DATE_AND_TIME ( #101, #59 ) ;
#37 = DIRECTION ( 'NONE',  ( -0.0000000000000000000, -0.0000000000000000000, -1.000000000000000000 ) ) ;
#38 = MECHANICAL_CONTEXT ( 'NONE', #4, 'mechanical' ) ;
#39 = PERSON_AND_ORGANIZATION_ROLE ( 'creator' ) ;
#40 = PERSON_AND_ORGANIZATION_ROLE ( 'classification_officer' ) ;
#41 = AXIS2_PLACEMENT_3D ( 'NONE', #127, #123, #136 ) ;
#42 = EDGE_LOOP ( 'NONE', ( #155, #46, #174, #144 ) ) ;
#43 = CIRCLE ( 'NONE', #41, 12.50000000000000000 ) ;
#44 = PLANE ( 'NONE',  #19 ) ;
#45 = EDGE_CURVE ( 'NONE', #92, #22, #114, .T. ) ;
#46 = ORIENTED_EDGE ( 'NONE', *, *, #13, .F. ) ;
#47 = EDGE_CURVE ( 'NONE', #165, #7, #43, .T. ) ;
#48 = FACE_OUTER_BOUND ( 'NONE', #42, .T. ) ;
#49 = EDGE_CURVE ( 'NONE', #7, #165, #11, .T. ) ;
#50 = PERSON_AND_ORGANIZATION ( #25, #34 ) ;
#51 = CARTESIAN_POINT ( 'NONE',  ( 12.50000000000000000, 1.530808498934191521E-15, 1.500000000000000000 ) ) ;
#52 =( NAMED_UNIT ( * ) SI_UNIT ( $, .STERADIAN. ) SOLID_ANGLE_UNIT ( ) );
#53 = AXIS2_PLACEMENT_3D ( 'NONE', #162, #1, #17 ) ;
#54 = DIRECTION ( 'NONE',  ( 1.000000000000000000, 0.0000000000000000000, -0.0000000000000000000 ) ) ;
#55 = CIRCLE ( 'NONE', #147, 12.50000000000000000 ) ;
#56 = ADVANCED_FACE ( 'NONE', ( #48 ), #175, .T. ) ;
#57 = CC_DESIGN_DATE_AND_TIME_ASSIGNMENT ( #83, #5, ( #128 ) ) ;
#58 = DESIGN_CONTEXT ( 'detailed design', #70, 'design' ) ;
#59 = LOCAL_TIME ( 16, 42, 23.00000000000000000, #129 ) ;
#60 = EDGE_CURVE ( 'NONE', #92, #165, #108, .T. ) ;
#61 = FACE_OUTER_BOUND ( 'NONE', #103, .T. ) ;
#62 = LOCAL_TIME ( 16, 42, 23.00000000000000000, #157 ) ;
#63 = AXIS2_PLACEMENT_3D ( 'NONE', #74, #110, #66 ) ;
#64 = ORIENTED_EDGE ( 'NONE', *, *, #49, .F. ) ;
#65 = APPROVAL_DATE_TIME ( #10, #168 ) ;
#66 = DIRECTION ( 'NONE',  ( -1.000000000000000000, 0.0000000000000000000, 0.0000000000000000000 ) ) ;
#67 = DIRECTION ( 'NONE',  ( 0.0000000000000000000, 0.0000000000000000000, 1.000000000000000000 ) ) ;
#68 = PRODUCT_DEFINITION ( 'UNKNOWN', '', #71, #58 ) ;
#69 = PERSON_AND_ORGANIZATION ( #25, #34 ) ;
#70 = APPLICATION_CONTEXT ( 'configuration controlled 3d designs of mechanical parts and assemblies' ) ;
#71 = PRODUCT_DEFINITION_FORMATION_WITH_SPECIFIED_SOURCE ( 'ANY', '', #113, .NOT_KNOWN. ) ;
#72 =( GEOMETRIC_REPRESENTATION_CONTEXT ( 3 ) GLOBAL_UNCERTAINTY_ASSIGNED_CONTEXT ( ( #112 ) ) GLOBAL_UNIT_ASSIGNED_CONTEXT ( ( #35, #23, #52 ) ) REPRESENTATION_CONTEXT ( 'NONE', 'WORKASPACE' ) );
#73 = LINE ( 'NONE', #96, #119 ) ;
#74 = CARTESIAN_POINT ( 'NONE',  ( 0.0000000000000000000, 0.0000000000000000000, 1.500000000000000000 ) ) ;
#75 = ADVANCED_FACE ( 'NONE', ( #142 ), #88, .F. ) ;
#76 = CARTESIAN_POINT ( 'NONE',  ( 12.50000000000000000, 1.530808498934191521E-15, 1.500000000000000000 ) ) ;
#77 = ORIENTED_EDGE ( 'NONE', *, *, #45, .F. ) ;
#78 = DIRECTION ( 'NONE',  ( 0.0000000000000000000, 0.0000000000000000000, 1.000000000000000000 ) ) ;
#79 = DIRECTION ( 'NONE',  ( 0.0000000000000000000, 0.0000000000000000000, 1.000000000000000000 ) ) ;
#80 = DIRECTION ( 'NONE',  ( -0.0000000000000000000, -0.0000000000000000000, -1.000000000000000000 ) ) ;
#81 = ORIENTED_EDGE ( 'NONE', *, *, #153, .F. ) ;
#82 = PERSON_AND_ORGANIZATION ( #25, #34 ) ;
#83 = DATE_AND_TIME ( #9, #150 ) ;
#84 = APPROVAL_DATE_TIME ( #116, #170 ) ;
#85 = CARTESIAN_POINT ( 'NONE',  ( 0.0000000000000000000, 0.0000000000000000000, 1.500000000000000000 ) ) ;
#86 = DATE_AND_TIME ( #117, #62 ) ;
#87 = APPROVAL_STATUS ( 'not_yet_approved' ) ;
#88 = PLANE ( 'NONE',  #125 ) ;
#89 = APPLICATION_PROTOCOL_DEFINITION ( 'international standard', 'config_control_design', 1994, #70 ) ;
#90 = LOCAL_TIME ( 16, 42, 23.00000000000000000, #126 ) ;
#91 = CC_DESIGN_PERSON_AND_ORGANIZATION_ASSIGNMENT ( #14, #6, ( #113 ) ) ;
#92 = VERTEX_POINT ( 'NONE', #51 ) ;
#93 = PERSON_AND_ORGANIZATION ( #25, #34 ) ;
#94 = CARTESIAN_POINT ( 'NONE',  ( 0.0000000000000000000, 0.0000000000000000000, 1.500000000000000000 ) ) ;
#95 = AXIS2_PLACEMENT_3D ( 'NONE', #85, #37, #107 ) ;
#96 = CARTESIAN_POINT ( 'NONE',  ( -12.50000000000000000, 0.0000000000000000000, 1.500000000000000000 ) ) ;
#97 = DATE_TIME_ROLE ( 'creation_date' ) ;
#98 = CC_DESIGN_APPROVAL ( #170, ( #68 ) ) ;
#99 = DIRECTION ( 'NONE',  ( 1.000000000000000000, 0.0000000000000000000, 0.0000000000000000000 ) ) ;
#100 = PERSON_AND_ORGANIZATION_ROLE ( 'design_supplier' ) ;
#101 = CALENDAR_DATE ( 2020, 11, 8 ) ;
#102 = ORIENTED_EDGE ( 'NONE', *, *, #13, .T. ) ;
#103 = EDGE_LOOP ( 'NONE', ( #102, #172 ) ) ;
#104 = ADVANCED_BREP_SHAPE_REPRESENTATION ( 'Web Model 15467_15471', ( #118, #158 ), #72 ) ;
#105 = EDGE_LOOP ( 'NONE', ( #77, #30, #131, #81 ) ) ;
#106 = CC_DESIGN_PERSON_AND_ORGANIZATION_ASSIGNMENT ( #93, #39, ( #68 ) ) ;
#107 = DIRECTION ( 'NONE',  ( -1.000000000000000000, 0.0000000000000000000, 0.0000000000000000000 ) ) ;
#108 = LINE ( 'NONE', #76, #173 ) ;
#109 = DIRECTION ( 'NONE',  ( 1.000000000000000000, 0.0000000000000000000, 0.0000000000000000000 ) ) ;
#110 = DIRECTION ( 'NONE',  ( -0.0000000000000000000, -0.0000000000000000000, -1.000000000000000000 ) ) ;
#111 = EDGE_LOOP ( 'NONE', ( #64, #3 ) ) ;
#112 = UNCERTAINTY_MEASURE_WITH_UNIT (LENGTH_MEASURE( 1.000000000000000082E-05 ), #35, 'distance_accuracy_value', 'NONE');
#113 = PRODUCT ( 'Web Model 15467_15471', 'Web Model 15467_15471', '', ( #38 ) ) ;
#114 = CIRCLE ( 'NONE', #29, 12.50000000000000000 ) ;
#115 = SECURITY_CLASSIFICATION_LEVEL ( 'unclassified' ) ;
#116 = DATE_AND_TIME ( #152, #90 ) ;
#117 = CALENDAR_DATE ( 2020, 11, 8 ) ;
#118 = MANIFOLD_SOLID_BREP ( 'Boss-Extrude1', #121 ) ;
#119 = VECTOR ( 'NONE', #80, 1000.000000000000000 ) ;
#120 = COORDINATED_UNIVERSAL_TIME_OFFSET ( 5, 0, .BEHIND. ) ;
#121 = CLOSED_SHELL ( 'NONE', ( #21, #56, #8, #75 ) ) ;
#122 = CC_DESIGN_APPROVAL ( #28, ( #71 ) ) ;
#123 = DIRECTION ( 'NONE',  ( 0.0000000000000000000, 0.0000000000000000000, 1.000000000000000000 ) ) ;
#124 = PERSON_AND_ORGANIZATION ( #25, #34 ) ;
#125 = AXIS2_PLACEMENT_3D ( 'NONE', #20, #79, #54 ) ;
#126 = COORDINATED_UNIVERSAL_TIME_OFFSET ( 5, 0, .BEHIND. ) ;
#127 = CARTESIAN_POINT ( 'NONE',  ( 0.0000000000000000000, 0.0000000000000000000, -1.500000000000000000 ) ) ;
#128 = SECURITY_CLASSIFICATION ( '', '', #115 ) ;
#129 = COORDINATED_UNIVERSAL_TIME_OFFSET ( 5, 0, .BEHIND. ) ;
#130 = APPROVAL_ROLE ( '' ) ;
#131 = ORIENTED_EDGE ( 'NONE', *, *, #47, .T. ) ;
#132 = PERSON_AND_ORGANIZATION_ROLE ( 'creator' ) ;
#133 = APPROVAL_PERSON_ORGANIZATION ( #169, #170, #149 ) ;
#134 = SHAPE_DEFINITION_REPRESENTATION ( #139, #104 ) ;
#135 = APPROVAL_PERSON_ORGANIZATION ( #50, #168, #166 ) ;
#136 = DIRECTION ( 'NONE',  ( 1.000000000000000000, 0.0000000000000000000, 0.0000000000000000000 ) ) ;
#137 = CARTESIAN_POINT ( 'NONE',  ( 0.0000000000000000000, 0.0000000000000000000, 1.500000000000000000 ) ) ;
#138 = CARTESIAN_POINT ( 'NONE',  ( 0.0000000000000000000, 0.0000000000000000000, 0.0000000000000000000 ) ) ;
#139 = PRODUCT_DEFINITION_SHAPE ( 'NONE', 'NONE',  #68 ) ;
#140 = DIRECTION ( 'NONE',  ( -0.0000000000000000000, -0.0000000000000000000, -1.000000000000000000 ) ) ;
#141 = CC_DESIGN_PERSON_AND_ORGANIZATION_ASSIGNMENT ( #82, #100, ( #71 ) ) ;
#142 = FACE_OUTER_BOUND ( 'NONE', #111, .T. ) ;
#143 = CALENDAR_DATE ( 2020, 11, 8 ) ;
#144 = ORIENTED_EDGE ( 'NONE', *, *, #49, .T. ) ;
#145 = CC_DESIGN_DATE_AND_TIME_ASSIGNMENT ( #36, #97, ( #68 ) ) ;
#146 = FACE_OUTER_BOUND ( 'NONE', #105, .T. ) ;
#147 = AXIS2_PLACEMENT_3D ( 'NONE', #137, #67, #109 ) ;
#148 = DIRECTION ( 'NONE',  ( 1.000000000000000000, 0.0000000000000000000, 0.0000000000000000000 ) ) ;
#149 = APPROVAL_ROLE ( '' ) ;
#150 = LOCAL_TIME ( 16, 42, 23.00000000000000000, #154 ) ;
#151 = APPROVAL_STATUS ( 'not_yet_approved' ) ;
#152 = CALENDAR_DATE ( 2020, 11, 8 ) ;
#153 = EDGE_CURVE ( 'NONE', #22, #7, #73, .T. ) ;
#154 = COORDINATED_UNIVERSAL_TIME_OFFSET ( 5, 0, .BEHIND. ) ;
#155 = ORIENTED_EDGE ( 'NONE', *, *, #60, .F. ) ;
#156 = CC_DESIGN_PERSON_AND_ORGANIZATION_ASSIGNMENT ( #171, #132, ( #71 ) ) ;
#157 = COORDINATED_UNIVERSAL_TIME_OFFSET ( 5, 0, .BEHIND. ) ;
#158 = AXIS2_PLACEMENT_3D ( 'NONE', #138, #78, #99 ) ;
#159 = CC_DESIGN_PERSON_AND_ORGANIZATION_ASSIGNMENT ( #124, #40, ( #128 ) ) ;
#160 = CARTESIAN_POINT ( 'NONE',  ( -12.50000000000000000, 0.0000000000000000000, -1.500000000000000000 ) ) ;
#161 = DIRECTION ( 'NONE',  ( 0.0000000000000000000, 0.0000000000000000000, 1.000000000000000000 ) ) ;
#162 = CARTESIAN_POINT ( 'NONE',  ( 0.0000000000000000000, 0.0000000000000000000, -1.500000000000000000 ) ) ;
#163 = DIRECTION ( 'NONE',  ( 0.0000000000000000000, 0.0000000000000000000, 1.000000000000000000 ) ) ;
#164 = APPROVAL_STATUS ( 'not_yet_approved' ) ;
#165 = VERTEX_POINT ( 'NONE', #167 ) ;
#166 = APPROVAL_ROLE ( '' ) ;
#167 = CARTESIAN_POINT ( 'NONE',  ( 12.50000000000000000, 1.530808498934191521E-15, -1.500000000000000000 ) ) ;
#168 = APPROVAL ( #151, 'UNSPECIFIED' ) ;
#169 = PERSON_AND_ORGANIZATION ( #25, #34 ) ;
#170 = APPROVAL ( #164, 'UNSPECIFIED' ) ;
#171 = PERSON_AND_ORGANIZATION ( #25, #34 ) ;
#172 = ORIENTED_EDGE ( 'NONE', *, *, #45, .T. ) ;
#173 = VECTOR ( 'NONE', #140, 1000.000000000000000 ) ;
#174 = ORIENTED_EDGE ( 'NONE', *, *, #153, .T. ) ;
#175 = CYLINDRICAL_SURFACE ( 'NONE', #63, 12.50000000000000000 ) ;
ENDSEC;
END-ISO-10303-21;
