ISO-10303-21;
HEADER;
FILE_DESCRIPTION (( 'STEP AP203' ),
    '1' );
FILE_NAME ('Web Model 41021MX_41048.step',
    '2017-10-30T12:53:39',
    ( '' ),
    ( '' ),
    'SwSTEP 2.0',
    'SolidWorks 2016',
    '' );
FILE_SCHEMA (( 'CONFIG_CONTROL_DESIGN' ));
ENDSEC;

DATA;
#1 = ADVANCED_FACE ( 'NONE', ( #47 ), #4, .F. ) ;
#2 = DATE_AND_TIME ( #216, #70 ) ;
#3 = ORIENTED_EDGE ( 'NONE', *, *, #22, .T. ) ;
#4 = PLANE ( 'NONE',  #116 ) ;
#5 = PLANE ( 'NONE',  #14 ) ;
#6 = CARTESIAN_POINT ( 'NONE',  ( 12.49999999999999600, -6.249999999999998200, -4.750000000000000000 ) ) ;
#7 = LOCAL_TIME ( 8, 53, 39.00000000000000000, #138 ) ;
#8 = COORDINATED_UNIVERSAL_TIME_OFFSET ( 5, 0, .BEHIND. ) ;
#9 = PLANE ( 'NONE',  #108 ) ;
#10 = VECTOR ( 'NONE', #38, 1000.000000000000000 ) ;
#11 = ORIENTED_EDGE ( 'NONE', *, *, #212, .T. ) ;
#12 = MECHANICAL_CONTEXT ( 'NONE', #157, 'mechanical' ) ;
#13 = DATE_AND_TIME ( #44, #7 ) ;
#14 = AXIS2_PLACEMENT_3D ( 'NONE', #81, #95, #21 ) ;
#15 = LINE ( 'NONE', #185, #49 ) ;
#16 = ORIENTED_EDGE ( 'NONE', *, *, #27, .T. ) ;
#17 = ORIENTED_EDGE ( 'NONE', *, *, #87, .F. ) ;
#18 = CARTESIAN_POINT ( 'NONE',  ( 0.0000000000000000000, 0.0000000000000000000, 4.750000000000000000 ) ) ;
#19 = COORDINATED_UNIVERSAL_TIME_OFFSET ( 5, 0, .BEHIND. ) ;
#20 = DIRECTION ( 'NONE',  ( 1.000000000000000000, 1.387778780781445700E-016, -0.0000000000000000000 ) ) ;
#21 = DIRECTION ( 'NONE',  ( -1.000000000000000000, -1.387778780781445700E-016, 0.0000000000000000000 ) ) ;
#22 = EDGE_CURVE ( 'NONE', #219, #24, #88, .T. ) ;
#23 = LOCAL_TIME ( 8, 53, 39.00000000000000000, #8 ) ;
#24 = VERTEX_POINT ( 'NONE', #226 ) ;
#25 =( NAMED_UNIT ( * ) SI_UNIT ( $, .STERADIAN. ) SOLID_ANGLE_UNIT ( ) );
#26 =( LENGTH_UNIT ( ) NAMED_UNIT ( * ) SI_UNIT ( .MILLI., .METRE. ) );
#27 = EDGE_CURVE ( 'NONE', #173, #40, #168, .T. ) ;
#28 = APPROVAL_DATE_TIME ( #97, #186 ) ;
#29 = PERSON ( 'UNSPECIFIED', 'UNSPECIFIED', 'UNSPECIFIED', ('UNSPECIFIED'), ('UNSPECIFIED'), ('UNSPECIFIED') ) ;
#30 = CALENDAR_DATE ( 2017, 30, 10 ) ;
#31 = FACE_OUTER_BOUND ( 'NONE', #152, .T. ) ;
#32 = AXIS2_PLACEMENT_3D ( 'NONE', #18, #151, #205 ) ;
#33 = VECTOR ( 'NONE', #20, 1000.000000000000000 ) ;
#34 = FACE_OUTER_BOUND ( 'NONE', #237, .T. ) ;
#35 = UNCERTAINTY_MEASURE_WITH_UNIT (LENGTH_MEASURE( 1.000000000000000100E-005 ), #26, 'distance_accuracy_value', 'NONE');
#36 = CC_DESIGN_DATE_AND_TIME_ASSIGNMENT ( #45, #156, ( #178 ) ) ;
#37 = VECTOR ( 'NONE', #164, 1000.000000000000000 ) ;
#38 = DIRECTION ( 'NONE',  ( 0.0000000000000000000, 1.000000000000000000, 0.0000000000000000000 ) ) ;
#39 = EDGE_CURVE ( 'NONE', #40, #230, #102, .T. ) ;
#40 = VERTEX_POINT ( 'NONE', #60 ) ;
#41 = CARTESIAN_POINT ( 'NONE',  ( 12.49999999999999600, 6.250000000000000000, 4.750000000000000000 ) ) ;
#42 = PERSON_AND_ORGANIZATION_ROLE ( 'creator' ) ;
#43 = CARTESIAN_POINT ( 'NONE',  ( 0.0000000000000000000, 0.0000000000000000000, 0.0000000000000000000 ) ) ;
#44 = CALENDAR_DATE ( 2017, 30, 10 ) ;
#45 = DATE_AND_TIME ( #160, #117 ) ;
#46 = ORIENTED_EDGE ( 'NONE', *, *, #39, .F. ) ;
#47 = FACE_OUTER_BOUND ( 'NONE', #121, .T. ) ;
#48 = FACE_OUTER_BOUND ( 'NONE', #175, .T. ) ;
#49 = VECTOR ( 'NONE', #93, 1000.000000000000000 ) ;
#50 = EDGE_CURVE ( 'NONE', #24, #158, #234, .T. ) ;
#51 = ADVANCED_FACE ( 'NONE', ( #31 ), #187, .T. ) ;
#52 = SHAPE_DEFINITION_REPRESENTATION ( #66, #142 ) ;
#53 = ADVANCED_FACE ( 'NONE', ( #196 ), #165, .F. ) ;
#54 = ORIENTED_EDGE ( 'NONE', *, *, #50, .F. ) ;
#55 = CARTESIAN_POINT ( 'NONE',  ( -12.50000000000000400, -6.250000000000001800, -4.750000000000000000 ) ) ;
#56 = DIRECTION ( 'NONE',  ( 0.0000000000000000000, 0.0000000000000000000, -1.000000000000000000 ) ) ;
#57 = CARTESIAN_POINT ( 'NONE',  ( 12.49999999999999600, -6.249999999999998200, -4.750000000000000000 ) ) ;
#58 = DIRECTION ( 'NONE',  ( -0.0000000000000000000, -1.000000000000000000, -0.0000000000000000000 ) ) ;
#59 = CC_DESIGN_DATE_AND_TIME_ASSIGNMENT ( #222, #86, ( #125 ) ) ;
#60 = CARTESIAN_POINT ( 'NONE',  ( 12.49999999999999600, -6.249999999999998200, -4.750000000000000000 ) ) ;
#61 = APPROVAL_ROLE ( '' ) ;
#62 = PERSON_AND_ORGANIZATION_ROLE ( 'design_supplier' ) ;
#63 = PLANE ( 'NONE',  #233 ) ;
#64 = APPROVAL ( #190, 'UNSPECIFIED' ) ;
#65 = CARTESIAN_POINT ( 'NONE',  ( -12.50000000000000400, 6.249999999999998200, 4.750000000000000000 ) ) ;
#66 = PRODUCT_DEFINITION_SHAPE ( 'NONE', 'NONE',  #178 ) ;
#67 = APPROVAL_PERSON_ORGANIZATION ( #78, #186, #215 ) ;
#68 = VERTEX_POINT ( 'NONE', #223 ) ;
#69 = CC_DESIGN_APPROVAL ( #211, ( #125 ) ) ;
#70 = LOCAL_TIME ( 8, 53, 39.00000000000000000, #19 ) ;
#71 = LINE ( 'NONE', #129, #147 ) ;
#72 = VERTEX_POINT ( 'NONE', #227 ) ;
#73 = PERSON_AND_ORGANIZATION ( #29, #113 ) ;
#74 = LINE ( 'NONE', #110, #37 ) ;
#75 = LOCAL_TIME ( 8, 53, 39.00000000000000000, #84 ) ;
#76 = CC_DESIGN_PERSON_AND_ORGANIZATION_ASSIGNMENT ( #109, #42, ( #85 ) ) ;
#77 = DIRECTION ( 'NONE',  ( 1.000000000000000000, 0.0000000000000000000, 0.0000000000000000000 ) ) ;
#78 = PERSON_AND_ORGANIZATION ( #29, #113 ) ;
#79 = CARTESIAN_POINT ( 'NONE',  ( 12.49999999999999600, -6.249999999999998200, 4.750000000000000000 ) ) ;
#80 = AXIS2_PLACEMENT_3D ( 'NONE', #206, #77, #56 ) ;
#81 = CARTESIAN_POINT ( 'NONE',  ( 12.49999999999999600, -6.249999999999998200, 4.750000000000000000 ) ) ;
#82 = ORIENTED_EDGE ( 'NONE', *, *, #212, .F. ) ;
#83 = CARTESIAN_POINT ( 'NONE',  ( 12.49999999999999600, -6.249999999999998200, 4.750000000000000000 ) ) ;
#84 = COORDINATED_UNIVERSAL_TIME_OFFSET ( 5, 0, .BEHIND. ) ;
#85 = PRODUCT_DEFINITION_FORMATION_WITH_SPECIFIED_SOURCE ( 'ANY', '', #194, .NOT_KNOWN. ) ;
#86 = DATE_TIME_ROLE ( 'classification_date' ) ;
#87 = EDGE_CURVE ( 'NONE', #230, #24, #145, .T. ) ;
#88 = LINE ( 'NONE', #167, #207 ) ;
#89 = LINE ( 'NONE', #41, #130 ) ;
#90 = ORIENTED_EDGE ( 'NONE', *, *, #118, .F. ) ;
#91 = ADVANCED_FACE ( 'NONE', ( #34 ), #9, .F. ) ;
#92 = EDGE_CURVE ( 'NONE', #173, #68, #177, .T. ) ;
#93 = DIRECTION ( 'NONE',  ( -0.0000000000000000000, -0.0000000000000000000, -1.000000000000000000 ) ) ;
#94 = CARTESIAN_POINT ( 'NONE',  ( 12.49999999999999600, 6.250000000000000000, -4.750000000000000000 ) ) ;
#95 = DIRECTION ( 'NONE',  ( -1.387778780781445700E-016, 1.000000000000000000, 0.0000000000000000000 ) ) ;
#96 = APPROVAL_DATE_TIME ( #13, #211 ) ;
#97 = DATE_AND_TIME ( #104, #23 ) ;
#98 = EDGE_LOOP ( 'NONE', ( #123, #182, #213, #11 ) ) ;
#99 = DIRECTION ( 'NONE',  ( -1.000000000000000000, 0.0000000000000000000, 0.0000000000000000000 ) ) ;
#100 =( NAMED_UNIT ( * ) PLANE_ANGLE_UNIT ( ) SI_UNIT ( $, .RADIAN. ) );
#101 = PERSON_AND_ORGANIZATION_ROLE ( 'creator' ) ;
#102 = LINE ( 'NONE', #57, #10 ) ;
#103 = EDGE_CURVE ( 'NONE', #219, #72, #74, .T. ) ;
#104 = CALENDAR_DATE ( 2017, 30, 10 ) ;
#105 = VECTOR ( 'NONE', #170, 1000.000000000000000 ) ;
#106 = DIRECTION ( 'NONE',  ( 1.000000000000000000, 0.0000000000000000000, -0.0000000000000000000 ) ) ;
#107 = DIRECTION ( 'NONE',  ( 1.000000000000000000, 1.387778780781445700E-016, -0.0000000000000000000 ) ) ;
#108 = AXIS2_PLACEMENT_3D ( 'NONE', #204, #210, #106 ) ;
#109 = PERSON_AND_ORGANIZATION ( #29, #113 ) ;
#110 = CARTESIAN_POINT ( 'NONE',  ( -12.50000000000000400, -6.250000000000001800, 4.750000000000000000 ) ) ;
#111 = ORIENTED_EDGE ( 'NONE', *, *, #92, .T. ) ;
#112 = DIRECTION ( 'NONE',  ( -0.0000000000000000000, -0.0000000000000000000, -1.000000000000000000 ) ) ;
#113 = ORGANIZATION ( 'UNSPECIFIED', 'UNSPECIFIED', '' ) ;
#114 = APPLICATION_CONTEXT ( 'configuration controlled 3d designs of mechanical parts and assemblies' ) ;
#115 = DIRECTION ( 'NONE',  ( 0.0000000000000000000, 0.0000000000000000000, 1.000000000000000000 ) ) ;
#116 = AXIS2_PLACEMENT_3D ( 'NONE', #183, #148, #153 ) ;
#117 = LOCAL_TIME ( 8, 53, 39.00000000000000000, #166 ) ;
#118 = EDGE_CURVE ( 'NONE', #68, #230, #15, .T. ) ;
#119 = CC_DESIGN_PERSON_AND_ORGANIZATION_ASSIGNMENT ( #139, #62, ( #85 ) ) ;
#120 = PERSON_AND_ORGANIZATION ( #29, #113 ) ;
#121 = EDGE_LOOP ( 'NONE', ( #209, #197, #159, #141 ) ) ;
#122 = PERSON_AND_ORGANIZATION ( #29, #113 ) ;
#123 = ORIENTED_EDGE ( 'NONE', *, *, #134, .T. ) ;
#124 = CLOSED_SHELL ( 'NONE', ( #53, #162, #220, #1, #51, #91 ) ) ;
#125 = SECURITY_CLASSIFICATION ( '', '', #172 ) ;
#126 = DIRECTION ( 'NONE',  ( 0.0000000000000000000, 1.000000000000000000, 0.0000000000000000000 ) ) ;
#127 = DIRECTION ( 'NONE',  ( -0.0000000000000000000, -0.0000000000000000000, -1.000000000000000000 ) ) ;
#128 = APPROVAL_DATE_TIME ( #2, #64 ) ;
#129 = CARTESIAN_POINT ( 'NONE',  ( -12.50000000000000400, -6.250000000000001800, 4.750000000000000000 ) ) ;
#130 = VECTOR ( 'NONE', #224, 1000.000000000000000 ) ;
#131 = VECTOR ( 'NONE', #112, 1000.000000000000000 ) ;
#132 = ORIENTED_EDGE ( 'NONE', *, *, #50, .T. ) ;
#133 = DIRECTION ( 'NONE',  ( 0.0000000000000000000, 0.0000000000000000000, 1.000000000000000000 ) ) ;
#134 = EDGE_CURVE ( 'NONE', #158, #40, #188, .T. ) ;
#135 = APPROVAL_STATUS ( 'not_yet_approved' ) ;
#136 = PERSON_AND_ORGANIZATION_ROLE ( 'design_owner' ) ;
#137 = AXIS2_PLACEMENT_3D ( 'NONE', #43, #115, #229 ) ;
#138 = COORDINATED_UNIVERSAL_TIME_OFFSET ( 5, 0, .BEHIND. ) ;
#139 = PERSON_AND_ORGANIZATION ( #29, #113 ) ;
#140 = LINE ( 'NONE', #79, #200 ) ;
#141 = ORIENTED_EDGE ( 'NONE', *, *, #118, .T. ) ;
#142 = ADVANCED_BREP_SHAPE_REPRESENTATION ( 'Web Model 41021MX_41048', ( #199, #137 ), #218 ) ;
#143 = PERSON_AND_ORGANIZATION ( #29, #113 ) ;
#144 = PERSON_AND_ORGANIZATION ( #29, #113 ) ;
#145 = LINE ( 'NONE', #94, #105 ) ;
#146 = EDGE_CURVE ( 'NONE', #72, #173, #140, .T. ) ;
#147 = VECTOR ( 'NONE', #176, 1000.000000000000000 ) ;
#148 = DIRECTION ( 'NONE',  ( 6.938893903907228400E-017, -1.000000000000000000, 0.0000000000000000000 ) ) ;
#149 = CC_DESIGN_SECURITY_CLASSIFICATION ( #125, ( #85 ) ) ;
#150 = CARTESIAN_POINT ( 'NONE',  ( 12.49999999999999600, -6.249999999999998200, 4.750000000000000000 ) ) ;
#151 = DIRECTION ( 'NONE',  ( 0.0000000000000000000, -0.0000000000000000000, 1.000000000000000000 ) ) ;
#152 = EDGE_LOOP ( 'NONE', ( #184, #236, #111, #181 ) ) ;
#153 = DIRECTION ( 'NONE',  ( 1.000000000000000000, 6.938893903907228400E-017, 0.0000000000000000000 ) ) ;
#154 = APPROVAL_ROLE ( '' ) ;
#155 = APPLICATION_PROTOCOL_DEFINITION ( 'international standard', 'config_control_design', 1994, #114 ) ;
#156 = DATE_TIME_ROLE ( 'creation_date' ) ;
#157 = APPLICATION_CONTEXT ( 'configuration controlled 3d designs of mechanical parts and assemblies' ) ;
#158 = VERTEX_POINT ( 'NONE', #171 ) ;
#159 = ORIENTED_EDGE ( 'NONE', *, *, #174, .F. ) ;
#160 = CALENDAR_DATE ( 2017, 30, 10 ) ;
#161 = CC_DESIGN_PERSON_AND_ORGANIZATION_ASSIGNMENT ( #120, #136, ( #194 ) ) ;
#162 = ADVANCED_FACE ( 'NONE', ( #232 ), #5, .F. ) ;
#163 = APPROVAL_PERSON_ORGANIZATION ( #73, #64, #154 ) ;
#164 = DIRECTION ( 'NONE',  ( -0.0000000000000000000, -1.000000000000000000, -0.0000000000000000000 ) ) ;
#165 = PLANE ( 'NONE',  #80 ) ;
#166 = COORDINATED_UNIVERSAL_TIME_OFFSET ( 5, 0, .BEHIND. ) ;
#167 = CARTESIAN_POINT ( 'NONE',  ( -12.50000000000000400, 6.249999999999998200, 4.750000000000000000 ) ) ;
#168 = LINE ( 'NONE', #83, #131 ) ;
#169 = ORIENTED_EDGE ( 'NONE', *, *, #103, .F. ) ;
#170 = DIRECTION ( 'NONE',  ( -1.000000000000000000, -6.938893903907228400E-017, 0.0000000000000000000 ) ) ;
#171 = CARTESIAN_POINT ( 'NONE',  ( -12.50000000000000400, -6.250000000000001800, -4.750000000000000000 ) ) ;
#172 = SECURITY_CLASSIFICATION_LEVEL ( 'unclassified' ) ;
#173 = VERTEX_POINT ( 'NONE', #150 ) ;
#174 = EDGE_CURVE ( 'NONE', #68, #219, #89, .T. ) ;
#175 = EDGE_LOOP ( 'NONE', ( #179, #90, #189, #16 ) ) ;
#176 = DIRECTION ( 'NONE',  ( -0.0000000000000000000, -0.0000000000000000000, -1.000000000000000000 ) ) ;
#177 = LINE ( 'NONE', #208, #217 ) ;
#178 = PRODUCT_DEFINITION ( 'UNKNOWN', '', #85, #235 ) ;
#179 = ORIENTED_EDGE ( 'NONE', *, *, #39, .T. ) ;
#180 = VECTOR ( 'NONE', #58, 1000.000000000000000 ) ;
#181 = ORIENTED_EDGE ( 'NONE', *, *, #174, .T. ) ;
#182 = ORIENTED_EDGE ( 'NONE', *, *, #27, .F. ) ;
#183 = CARTESIAN_POINT ( 'NONE',  ( 12.49999999999999600, 6.250000000000000000, 4.750000000000000000 ) ) ;
#184 = ORIENTED_EDGE ( 'NONE', *, *, #103, .T. ) ;
#185 = CARTESIAN_POINT ( 'NONE',  ( 12.49999999999999600, 6.250000000000000000, 4.750000000000000000 ) ) ;
#186 = APPROVAL ( #135, 'UNSPECIFIED' ) ;
#187 = PLANE ( 'NONE',  #32 ) ;
#188 = LINE ( 'NONE', #6, #33 ) ;
#189 = ORIENTED_EDGE ( 'NONE', *, *, #92, .F. ) ;
#190 = APPROVAL_STATUS ( 'not_yet_approved' ) ;
#191 = APPROVAL_PERSON_ORGANIZATION ( #143, #211, #61 ) ;
#192 = APPLICATION_PROTOCOL_DEFINITION ( 'international standard', 'config_control_design', 1994, #157 ) ;
#193 = PERSON_AND_ORGANIZATION_ROLE ( 'classification_officer' ) ;
#194 = PRODUCT ( 'Web Model 41021MX_41048', 'Web Model 41021MX_41048', '', ( #12 ) ) ;
#195 = CARTESIAN_POINT ( 'NONE',  ( 12.49999999999999600, 6.250000000000000000, -4.750000000000000000 ) ) ;
#196 = FACE_OUTER_BOUND ( 'NONE', #203, .T. ) ;
#197 = ORIENTED_EDGE ( 'NONE', *, *, #22, .F. ) ;
#198 = CC_DESIGN_PERSON_AND_ORGANIZATION_ASSIGNMENT ( #122, #193, ( #125 ) ) ;
#199 = MANIFOLD_SOLID_BREP ( 'Boss-Extrude1', #124 ) ;
#200 = VECTOR ( 'NONE', #107, 1000.000000000000000 ) ;
#201 = CC_DESIGN_APPROVAL ( #186, ( #178 ) ) ;
#202 = PRODUCT_RELATED_PRODUCT_CATEGORY ( 'detail', '', ( #194 ) ) ;
#203 = EDGE_LOOP ( 'NONE', ( #132, #82, #169, #3 ) ) ;
#204 = CARTESIAN_POINT ( 'NONE',  ( 0.0000000000000000000, 0.0000000000000000000, -4.750000000000000000 ) ) ;
#205 = DIRECTION ( 'NONE',  ( 1.000000000000000000, 0.0000000000000000000, -0.0000000000000000000 ) ) ;
#206 = CARTESIAN_POINT ( 'NONE',  ( -12.50000000000000400, -6.250000000000001800, 4.750000000000000000 ) ) ;
#207 = VECTOR ( 'NONE', #127, 1000.000000000000000 ) ;
#208 = CARTESIAN_POINT ( 'NONE',  ( 12.49999999999999600, -6.249999999999998200, 4.750000000000000000 ) ) ;
#209 = ORIENTED_EDGE ( 'NONE', *, *, #87, .T. ) ;
#210 = DIRECTION ( 'NONE',  ( 0.0000000000000000000, -0.0000000000000000000, 1.000000000000000000 ) ) ;
#211 = APPROVAL ( #214, 'UNSPECIFIED' ) ;
#212 = EDGE_CURVE ( 'NONE', #72, #158, #71, .T. ) ;
#213 = ORIENTED_EDGE ( 'NONE', *, *, #146, .F. ) ;
#214 = APPROVAL_STATUS ( 'not_yet_approved' ) ;
#215 = APPROVAL_ROLE ( '' ) ;
#216 = CALENDAR_DATE ( 2017, 30, 10 ) ;
#217 = VECTOR ( 'NONE', #126, 1000.000000000000000 ) ;
#218 =( GEOMETRIC_REPRESENTATION_CONTEXT ( 3 ) GLOBAL_UNCERTAINTY_ASSIGNED_CONTEXT ( ( #35 ) ) GLOBAL_UNIT_ASSIGNED_CONTEXT ( ( #26, #100, #25 ) ) REPRESENTATION_CONTEXT ( 'NONE', 'WORKASPACE' ) );
#219 = VERTEX_POINT ( 'NONE', #65 ) ;
#220 = ADVANCED_FACE ( 'NONE', ( #48 ), #63, .F. ) ;
#221 = ORIENTED_EDGE ( 'NONE', *, *, #134, .F. ) ;
#222 = DATE_AND_TIME ( #30, #75 ) ;
#223 = CARTESIAN_POINT ( 'NONE',  ( 12.49999999999999600, 6.250000000000000000, 4.750000000000000000 ) ) ;
#224 = DIRECTION ( 'NONE',  ( -1.000000000000000000, -6.938893903907228400E-017, 0.0000000000000000000 ) ) ;
#225 = CC_DESIGN_APPROVAL ( #64, ( #85 ) ) ;
#226 = CARTESIAN_POINT ( 'NONE',  ( -12.50000000000000400, 6.249999999999998200, -4.750000000000000000 ) ) ;
#227 = CARTESIAN_POINT ( 'NONE',  ( -12.50000000000000400, -6.250000000000001800, 4.750000000000000000 ) ) ;
#228 = CC_DESIGN_PERSON_AND_ORGANIZATION_ASSIGNMENT ( #144, #101, ( #178 ) ) ;
#229 = DIRECTION ( 'NONE',  ( 1.000000000000000000, 0.0000000000000000000, 0.0000000000000000000 ) ) ;
#230 = VERTEX_POINT ( 'NONE', #195 ) ;
#231 = CARTESIAN_POINT ( 'NONE',  ( 12.49999999999999600, -6.249999999999998200, 4.750000000000000000 ) ) ;
#232 = FACE_OUTER_BOUND ( 'NONE', #98, .T. ) ;
#233 = AXIS2_PLACEMENT_3D ( 'NONE', #231, #99, #133 ) ;
#234 = LINE ( 'NONE', #55, #180 ) ;
#235 = DESIGN_CONTEXT ( 'detailed design', #114, 'design' ) ;
#236 = ORIENTED_EDGE ( 'NONE', *, *, #146, .T. ) ;
#237 = EDGE_LOOP ( 'NONE', ( #54, #17, #46, #221 ) ) ;
ENDSEC;
END-ISO-10303-21;
