ISO-10303-21;
HEADER;
FILE_DESCRIPTION (( 'STEP AP203' ),
    '1' );
FILE_NAME ('10mm BEAMSPLITTER CUBE TS_13437.step',
    '2020-10-29T14:33:33',
    ( '' ),
    ( '' ),
    'SwSTEP 2.0',
    'SolidWorks 2018',
    '' );
FILE_SCHEMA (( 'CONFIG_CONTROL_DESIGN' ));
ENDSEC;

DATA;
#1 = CALENDAR_DATE ( 2020, 29, 10 ) ;
#2 = VECTOR ( 'NONE', #69, 999.9999999999998863 ) ;
#3 = CALENDAR_DATE ( 2020, 29, 10 ) ;
#4 = CC_DESIGN_APPROVAL ( #116, ( #257 ) ) ;
#5 = PRODUCT_DEFINITION_SHAPE ( 'NONE', 'NONE',  #122 ) ;
#6 = CARTESIAN_POINT ( 'NONE',  ( 5.000000000000000000, -8.659560562349064226E-16, -7.071067811865514585 ) ) ;
#7 = ORIENTED_EDGE ( 'NONE', *, *, #32, .T. ) ;
#8 = ADVANCED_FACE ( 'NONE', ( #201 ), #212, .F. ) ;
#9 = APPLICATION_CONTEXT ( 'configuration controlled 3d designs of mechanical parts and assemblies' ) ;
#10 = SECURITY_CLASSIFICATION ( '', '', #113 ) ;
#11 = COORDINATED_UNIVERSAL_TIME_OFFSET ( 5, 0, .BEHIND. ) ;
#12 = APPLICATION_CONTEXT ( 'configuration controlled 3d designs of mechanical parts and assemblies' ) ;
#13 = COORDINATED_UNIVERSAL_TIME_OFFSET ( 5, 0, .BEHIND. ) ;
#14 = DIRECTION ( 'NONE',  ( 0.0000000000000000000, -0.7071067811865435759, 0.7071067811865515695 ) ) ;
#15 = DATE_AND_TIME ( #306, #65 ) ;
#16 = MECHANICAL_CONTEXT ( 'NONE', #9, 'mechanical' ) ;
#17 = CARTESIAN_POINT ( 'NONE',  ( 5.000000000000000000, -8.659560562349064226E-16, -7.071067811865514585 ) ) ;
#18 = CC_DESIGN_PERSON_AND_ORGANIZATION_ASSIGNMENT ( #198, #303, ( #305 ) ) ;
#19 = DIRECTION ( 'NONE',  ( 0.0000000000000000000, 1.000000000000000000, 1.110223024625156540E-16 ) ) ;
#20 = AXIS2_PLACEMENT_3D ( 'NONE', #183, #293, #222 ) ;
#21 = APPROVAL_STATUS ( 'not_yet_approved' ) ;
#22 = ORIENTED_EDGE ( 'NONE', *, *, #182, .F. ) ;
#23 = PERSON_AND_ORGANIZATION ( #271, #133 ) ;
#24 = APPROVAL_ROLE ( '' ) ;
#25 = EDGE_CURVE ( 'NONE', #144, #350, #86, .T. ) ;
#26 = DATE_TIME_ROLE ( 'classification_date' ) ;
#27 = SHAPE_REPRESENTATION ( '10x10 Right Angle Prism Master', ( #20 ), #166 ) ;
#28 = CALENDAR_DATE ( 2020, 29, 10 ) ;
#29 = PRODUCT_RELATED_PRODUCT_CATEGORY ( 'detail', '', ( #164 ) ) ;
#30 = LINE ( 'NONE', #68, #62 ) ;
#31 = APPROVAL_DATE_TIME ( #276, #249 ) ;
#32 = EDGE_CURVE ( 'NONE', #266, #144, #30, .T. ) ;
#33 = DATE_AND_TIME ( #90, #275 ) ;
#34 = APPROVAL ( #104, 'UNSPECIFIED' ) ;
#35 = APPROVAL_PERSON_ORGANIZATION ( #41, #116, #216 ) ;
#36 = VECTOR ( 'NONE', #152, 1000.000000000000000 ) ;
#37 = PERSON_AND_ORGANIZATION ( #271, #133 ) ;
#38 = CC_DESIGN_DATE_AND_TIME_ASSIGNMENT ( #248, #325, ( #10 ) ) ;
#39 = DIRECTION ( 'NONE',  ( -1.000000000000000000, -0.0000000000000000000, -0.0000000000000000000 ) ) ;
#40 = APPLICATION_PROTOCOL_DEFINITION ( 'international standard', 'config_control_design', 1994, #12 ) ;
#41 = PERSON_AND_ORGANIZATION ( #271, #133 ) ;
#42 = CARTESIAN_POINT ( 'NONE',  ( 5.000000000000000000, 0.0000000000000000000, 7.071067811865514585 ) ) ;
#43 = MANIFOLD_SOLID_BREP ( 'Extrude1', #74 ) ;
#44 = CARTESIAN_POINT ( 'NONE',  ( 0.0000000000000000000, 0.0000000000000000000, 0.0000000000000000000 ) ) ;
#45 = DIRECTION ( 'NONE',  ( 0.0000000000000000000, 0.0000000000000000000, 1.000000000000000000 ) ) ;
#46 = APPROVAL ( #297, 'UNSPECIFIED' ) ;
#47 = CARTESIAN_POINT ( 'NONE',  ( 5.000000000000000000, 7.071067811865434649, -4.801055335612047211E-16 ) ) ;
#48 = LINE ( 'NONE', #339, #258 ) ;
#49 = APPROVAL_PERSON_ORGANIZATION ( #159, #46, #163 ) ;
#50 = DIRECTION ( 'NONE',  ( -6.162975822039154730E-33, -1.000000000000000000, -1.110223024625156787E-16 ) ) ;
#51 = APPROVAL_STATUS ( 'not_yet_approved' ) ;
#52 = ORIENTED_EDGE ( 'NONE', *, *, #318, .T. ) ;
#53 = PERSON_AND_ORGANIZATION_ROLE ( 'design_supplier' ) ;
#54 = PERSON_AND_ORGANIZATION ( #271, #133 ) ;
#55 = APPROVAL_STATUS ( 'not_yet_approved' ) ;
#56 = CC_DESIGN_APPROVAL ( #34, ( #243 ) ) ;
#57 = APPROVAL_ROLE ( '' ) ;
#58 = ORIENTED_EDGE ( 'NONE', *, *, #277, .F. ) ;
#59 = APPROVAL_PERSON_ORGANIZATION ( #120, #288, #24 ) ;
#60 = PERSON_AND_ORGANIZATION ( #271, #133 ) ;
#61 = PRODUCT_RELATED_PRODUCT_CATEGORY ( 'detail', '', ( #140 ) ) ;
#62 = VECTOR ( 'NONE', #39, 1000.000000000000000 ) ;
#63 = ORIENTED_EDGE ( 'NONE', *, *, #182, .T. ) ;
#64 = CALENDAR_DATE ( 2020, 29, 10 ) ;
#65 = LOCAL_TIME ( 10, 33, 33.00000000000000000, #128 ) ;
#66 = CARTESIAN_POINT ( 'NONE',  ( 5.000000000000000000, 0.0000000000000000000, 7.071067811865514585 ) ) ;
#67 = LINE ( 'NONE', #319, #341 ) ;
#68 = CARTESIAN_POINT ( 'NONE',  ( 5.000000000000000000, 7.071067811865434649, -4.801055335612047211E-16 ) ) ;
#69 = DIRECTION ( 'NONE',  ( 0.0000000000000000000, -0.7071067811865435759, 0.7071067811865515695 ) ) ;
#70 = DIRECTION ( 'NONE',  ( 1.000000000000000000, -6.162975822039156098E-33, 6.162975822039154730E-33 ) ) ;
#71 = APPROVAL ( #213, 'UNSPECIFIED' ) ;
#72 =( NAMED_UNIT ( * ) SI_UNIT ( $, .STERADIAN. ) SOLID_ANGLE_UNIT ( ) );
#73 = PERSON_AND_ORGANIZATION ( #271, #133 ) ;
#74 = CLOSED_SHELL ( 'NONE', ( #8, #101, #211, #340, #207 ) ) ;
#75 = PLANE ( 'NONE',  #326 ) ;
#76 = PRODUCT_DEFINITION_SHAPE ( 'NONE', 'NONE',  #279 ) ;
#77 = CARTESIAN_POINT ( 'NONE',  ( 5.000000000000000000, 7.071067811865433761, -1.734723475976807094E-15 ) ) ;
#78 = LOCAL_TIME ( 10, 33, 33.00000000000000000, #151 ) ;
#79 = DIRECTION ( 'NONE',  ( 1.000000000000000000, 0.0000000000000000000, 0.0000000000000000000 ) ) ;
#80 = AXIS2_PLACEMENT_3D ( 'NONE', #189, #45, #245 ) ;
#81 = MECHANICAL_CONTEXT ( 'NONE', #110, 'mechanical' ) ;
#82 = CC_DESIGN_PERSON_AND_ORGANIZATION_ASSIGNMENT ( #347, #154, ( #257 ) ) ;
#83 = VECTOR ( 'NONE', #100, 1000.000000000000000 ) ;
#84 = APPROVAL_ROLE ( '' ) ;
#85 = LOCAL_TIME ( 10, 33, 33.00000000000000000, #11 ) ;
#86 = LINE ( 'NONE', #209, #2 ) ;
#87 = APPROVAL_STATUS ( 'not_yet_approved' ) ;
#88 = COORDINATED_UNIVERSAL_TIME_OFFSET ( 5, 0, .BEHIND. ) ;
#89 = CC_DESIGN_PERSON_AND_ORGANIZATION_ASSIGNMENT ( #73, #210, ( #164 ) ) ;
#90 = CALENDAR_DATE ( 2020, 29, 10 ) ;
#91 = EDGE_CURVE ( 'NONE', #300, #235, #123, .T. ) ;
#92 = PERSON_AND_ORGANIZATION ( #271, #133 ) ;
#93 = CC_DESIGN_SECURITY_CLASSIFICATION ( #10, ( #360 ) ) ;
#94 = DESIGN_CONTEXT ( 'detailed design', #12, 'design' ) ;
#95 = CONTEXT_DEPENDENT_SHAPE_REPRESENTATION ( #353, #138 ) ;
#96 = APPROVAL_DATE_TIME ( #15, #116 ) ;
#97 = ORIENTED_EDGE ( 'NONE', *, *, #25, .F. ) ;
#98 = CC_DESIGN_SECURITY_CLASSIFICATION ( #305, ( #361 ) ) ;
#99 = APPROVAL_PERSON_ORGANIZATION ( #316, #34, #188 ) ;
#100 = DIRECTION ( 'NONE',  ( -1.000000000000000000, -0.0000000000000000000, -0.0000000000000000000 ) ) ;
#101 = ADVANCED_FACE ( 'NONE', ( #196 ), #290, .F. ) ;
#102 = DIRECTION ( 'NONE',  ( 0.0000000000000000000, 0.0000000000000000000, 1.000000000000000000 ) ) ;
#103 = DATE_AND_TIME ( #28, #176 ) ;
#104 = APPROVAL_STATUS ( 'not_yet_approved' ) ;
#105 = CARTESIAN_POINT ( 'NONE',  ( 5.000000000000000000, 0.0000000000000000000, 7.071067811865514585 ) ) ;
#106 = PERSON ( 'NAUO-PER2', 'UNSPECIFIED', 'UNSPECIFIED', ('UNSPECIFIED'), ('UNSPECIFIED'), ('UNSPECIFIED') ) ;
#107 = CC_DESIGN_PERSON_AND_ORGANIZATION_ASSIGNMENT ( #54, #301, ( #204 ) ) ;
#108 = PLANE ( 'NONE',  #148 ) ;
#109 = ORIENTED_EDGE ( 'NONE', *, *, #318, .F. ) ;
#110 = APPLICATION_CONTEXT ( 'configuration controlled 3d designs of mechanical parts and assemblies' ) ;
#111 = LOCAL_TIME ( 10, 33, 33.00000000000000000, #286 ) ;
#112 = AXIS2_PLACEMENT_3D ( 'NONE', #66, #237, #125 ) ;
#113 = SECURITY_CLASSIFICATION_LEVEL ( 'unclassified' ) ;
#114 = CC_DESIGN_DATE_AND_TIME_ASSIGNMENT ( #33, #143, ( #305 ) ) ;
#115 = COORDINATED_UNIVERSAL_TIME_OFFSET ( 5, 0, .BEHIND. ) ;
#116 = APPROVAL ( #21, 'UNSPECIFIED' ) ;
#117 = LINE ( 'NONE', #310, #36 ) ;
#118 = DATE_AND_TIME ( #323, #78 ) ;
#119 = APPROVAL ( #315, 'UNSPECIFIED' ) ;
#120 = PERSON_AND_ORGANIZATION ( #246, #352 ) ;
#121 = APPROVAL_DATE_TIME ( #256, #46 ) ;
#122 = PRODUCT_DEFINITION ( 'UNKNOWN', '', #257, #173 ) ;
#123 = LINE ( 'NONE', #42, #156 ) ;
#124 = DATE_AND_TIME ( #136, #197 ) ;
#125 = DIRECTION ( 'NONE',  ( 0.0000000000000000000, 6.123233995732582608E-17, 1.000000000000000000 ) ) ;
#126 = CARTESIAN_POINT ( 'NONE',  ( 5.000000000000000000, 7.071067811865434649, -4.801055335612047211E-16 ) ) ;
#127 = ORIENTED_EDGE ( 'NONE', *, *, #171, .T. ) ;
#128 = COORDINATED_UNIVERSAL_TIME_OFFSET ( 5, 0, .BEHIND. ) ;
#129 = DATE_TIME_ROLE ( 'creation_date' ) ;
#130 = CC_DESIGN_DATE_AND_TIME_ASSIGNMENT ( #219, #162, ( #122 ) ) ;
#131 =( NAMED_UNIT ( * ) SI_UNIT ( $, .STERADIAN. ) SOLID_ANGLE_UNIT ( ) );
#132 = DIRECTION ( 'NONE',  ( 0.0000000000000000000, -6.123233995732582608E-17, -1.000000000000000000 ) ) ;
#133 = ORGANIZATION ( 'UNSPECIFIED', 'UNSPECIFIED', '' ) ;
#134 =( NAMED_UNIT ( * ) PLANE_ANGLE_UNIT ( ) SI_UNIT ( $, .RADIAN. ) );
#135 = EDGE_LOOP ( 'NONE', ( #63, #274, #227 ) ) ;
#136 = CALENDAR_DATE ( 2020, 29, 10 ) ;
#137 = DIRECTION ( 'NONE',  ( 0.0000000000000000000, 0.7071067811865435759, 0.7071067811865513475 ) ) ;
#138 = PRODUCT_DEFINITION_SHAPE ( 'NONE', 'NONE',  #360 ) ;
#139 = APPLICATION_PROTOCOL_DEFINITION ( 'international standard', 'config_control_design', 1994, #9 ) ;
#140 = PRODUCT ( '10x10 Right Angle Prism Master', '10x10 Right Angle Prism Master', '', ( #81 ) ) ;
#141 = PERSON_AND_ORGANIZATION_ROLE ( 'classification_officer' ) ;
#142 = EDGE_LOOP ( 'NONE', ( #280, #334, #22, #7 ) ) ;
#143 = DATE_TIME_ROLE ( 'classification_date' ) ;
#144 = VERTEX_POINT ( 'NONE', #338 ) ;
#145 = CALENDAR_DATE ( 2020, 29, 10 ) ;
#146 = FACE_OUTER_BOUND ( 'NONE', #356, .T. ) ;
#147 = LOCAL_TIME ( 10, 33, 33.00000000000000000, #172 ) ;
#148 = AXIS2_PLACEMENT_3D ( 'NONE', #77, #346, #102 ) ;
#149 = CC_DESIGN_PERSON_AND_ORGANIZATION_ASSIGNMENT ( #92, #321, ( #122 ) ) ;
#150 = VECTOR ( 'NONE', #14, 999.9999999999998863 ) ;
#151 = COORDINATED_UNIVERSAL_TIME_OFFSET ( 5, 0, .BEHIND. ) ;
#152 = DIRECTION ( 'NONE',  ( -1.000000000000000000, -0.0000000000000000000, -0.0000000000000000000 ) ) ;
#153 = CC_DESIGN_PERSON_AND_ORGANIZATION_ASSIGNMENT ( #37, #299, ( #279 ) ) ;
#154 = PERSON_AND_ORGANIZATION_ROLE ( 'design_supplier' ) ;
#155 = EDGE_CURVE ( 'NONE', #235, #344, #117, .T. ) ;
#156 = VECTOR ( 'NONE', #179, 1000.000000000000000 ) ;
#157 = DIRECTION ( 'NONE',  ( 0.0000000000000000000, 0.0000000000000000000, 1.000000000000000000 ) ) ;
#158 = APPLICATION_PROTOCOL_DEFINITION ( 'international standard', 'config_control_design', 1994, #110 ) ;
#159 = PERSON_AND_ORGANIZATION ( #271, #133 ) ;
#160 =( NAMED_UNIT ( * ) PLANE_ANGLE_UNIT ( ) SI_UNIT ( $, .RADIAN. ) );
#161 = CC_DESIGN_APPROVAL ( #249, ( #343 ) ) ;
#162 = DATE_TIME_ROLE ( 'creation_date' ) ;
#163 = APPROVAL_ROLE ( '' ) ;
#164 = PRODUCT ( '10mm BEAMSPLITTER CUBE TS_13437', '10mm BEAMSPLITTER CUBE TS_13437', '', ( #16 ) ) ;
#165 = DATE_AND_TIME ( #64, #281 ) ;
#166 =( GEOMETRIC_REPRESENTATION_CONTEXT ( 3 ) GLOBAL_UNCERTAINTY_ASSIGNED_CONTEXT ( ( #167 ) ) GLOBAL_UNIT_ASSIGNED_CONTEXT ( ( #298, #160, #131 ) ) REPRESENTATION_CONTEXT ( 'NONE', 'WORKASPACE' ) );
#167 = UNCERTAINTY_MEASURE_WITH_UNIT (LENGTH_MEASURE( 1.000000000000000082E-05 ), #298, 'distance_accuracy_value', 'NONE');
#168 = APPROVAL_DATE_TIME ( #283, #119 ) ;
#169 = CC_DESIGN_PERSON_AND_ORGANIZATION_ASSIGNMENT ( #184, #342, ( #243 ) ) ;
#170 = APPROVAL_DATE_TIME ( #296, #71 ) ;
#171 = EDGE_CURVE ( 'NONE', #300, #350, #294, .T. ) ;
#172 = COORDINATED_UNIVERSAL_TIME_OFFSET ( 5, 0, .BEHIND. ) ;
#173 = DESIGN_CONTEXT ( 'detailed design', #263, 'design' ) ;
#174 = CALENDAR_DATE ( 2020, 29, 10 ) ;
#175 = EDGE_CURVE ( 'NONE', #235, #266, #48, .T. ) ;
#176 = LOCAL_TIME ( 10, 33, 33.00000000000000000, #115 ) ;
#177 = CC_DESIGN_SECURITY_CLASSIFICATION ( #343, ( #204 ) ) ;
#178 = FACE_OUTER_BOUND ( 'NONE', #135, .T. ) ;
#179 = DIRECTION ( 'NONE',  ( 0.0000000000000000000, -6.123233995732582608E-17, -1.000000000000000000 ) ) ;
#180 = LOCAL_TIME ( 10, 33, 33.00000000000000000, #330 ) ;
#181 = CARTESIAN_POINT ( 'NONE',  ( 5.000000000000000000, 0.0000000000000000000, 7.071067811865514585 ) ) ;
#182 = EDGE_CURVE ( 'NONE', #266, #300, #223, .T. ) ;
#183 = CARTESIAN_POINT ( 'NONE',  ( 0.0000000000000000000, 0.0000000000000000000, 0.0000000000000000000 ) ) ;
#184 = PERSON_AND_ORGANIZATION ( #271, #133 ) ;
#185 = DATE_TIME_ROLE ( 'classification_date' ) ;
#186 = CC_DESIGN_APPROVAL ( #71, ( #204 ) ) ;
#187 = DIRECTION ( 'NONE',  ( -1.000000000000000000, 0.0000000000000000000, 0.0000000000000000000 ) ) ;
#188 = APPROVAL_ROLE ( '' ) ;
#189 = CARTESIAN_POINT ( 'NONE',  ( 0.0000000000000000000, 0.0000000000000000000, 0.0000000000000000000 ) ) ;
#190 = ORIENTED_EDGE ( 'NONE', *, *, #155, .F. ) ;
#191 = APPROVAL_ROLE ( '' ) ;
#192 = PERSON_AND_ORGANIZATION_ROLE ( 'classification_officer' ) ;
#193 = APPROVAL ( #51, 'UNKNOWN' ) ;
#194 = PERSON_AND_ORGANIZATION ( #271, #133 ) ;
#195 = SECURITY_CLASSIFICATION_LEVEL ( 'unclassified' ) ;
#196 = FACE_OUTER_BOUND ( 'NONE', #284, .T. ) ;
#197 = LOCAL_TIME ( 10, 33, 33.00000000000000000, #332 ) ;
#198 = PERSON_AND_ORGANIZATION ( #106, #251 ) ;
#199 = LOCAL_TIME ( 10, 33, 33.00000000000000000, #88 ) ;
#200 = CC_DESIGN_APPROVAL ( #46, ( #279 ) ) ;
#201 = FACE_OUTER_BOUND ( 'NONE', #142, .T. ) ;
#202 = CONTEXT_DEPENDENT_SHAPE_REPRESENTATION ( #224, #233 ) ;
#203 = ITEM_DEFINED_TRANSFORMATION ( 'NONE', 'NONE', #311,  #20 ) ;
#204 = PRODUCT_DEFINITION_FORMATION_WITH_SPECIFIED_SOURCE ( 'ANY', '', #140, .NOT_KNOWN. ) ;
#205 = ORIENTED_EDGE ( 'NONE', *, *, #277, .T. ) ;
#206 = DIRECTION ( 'NONE',  ( 0.0000000000000000000, 0.7071067811865435759, 0.7071067811865513475 ) ) ;
#207 = ADVANCED_FACE ( 'NONE', ( #146 ), #214, .T. ) ;
#208 = COORDINATED_UNIVERSAL_TIME_OFFSET ( 5, 0, .BEHIND. ) ;
#209 = CARTESIAN_POINT ( 'NONE',  ( -5.000000000000000000, 7.071067811865434649, -4.801055335612047211E-16 ) ) ;
#210 = PERSON_AND_ORGANIZATION_ROLE ( 'design_owner' ) ;
#211 = ADVANCED_FACE ( 'NONE', ( #322 ), #75, .F. ) ;
#212 = PLANE ( 'NONE',  #287 ) ;
#213 = APPROVAL_STATUS ( 'not_yet_approved' ) ;
#214 = PLANE ( 'NONE',  #304 ) ;
#215 = SHAPE_DEFINITION_REPRESENTATION ( #5, #278 ) ;
#216 = APPROVAL_ROLE ( '' ) ;
#217 = ORIENTED_EDGE ( 'NONE', *, *, #155, .T. ) ;
#218 = APPROVAL_DATE_TIME ( #285, #288 ) ;
#219 = DATE_AND_TIME ( #1, #85 ) ;
#220 = CARTESIAN_POINT ( 'NONE',  ( -5.000000000000000000, 0.0000000000000000000, 7.071067811865514585 ) ) ;
#221 = CC_DESIGN_PERSON_AND_ORGANIZATION_ASSIGNMENT ( #336, #192, ( #343 ) ) ;
#222 = DIRECTION ( 'NONE',  ( 1.000000000000000000, 0.0000000000000000000, 0.0000000000000000000 ) ) ;
#223 = LINE ( 'NONE', #238, #150 ) ;
#224 =( REPRESENTATION_RELATIONSHIP ('NONE','NONE', #278, #27 ) REPRESENTATION_RELATIONSHIP_WITH_TRANSFORMATION ( #236 )SHAPE_REPRESENTATION_RELATIONSHIP( ) );
#225 = CC_DESIGN_APPROVAL ( #193, ( #305 ) ) ;
#226 = CC_DESIGN_PERSON_AND_ORGANIZATION_ASSIGNMENT ( #228, #53, ( #204 ) ) ;
#227 = ORIENTED_EDGE ( 'NONE', *, *, #175, .T. ) ;
#228 = PERSON_AND_ORGANIZATION ( #271, #133 ) ;
#229 = ORIENTED_EDGE ( 'NONE', *, *, #91, .F. ) ;
#230 = CC_DESIGN_APPROVAL ( #119, ( #122 ) ) ;
#231 = SHAPE_DEFINITION_REPRESENTATION ( #76, #27 ) ;
#232 = LOCAL_TIME ( 10, 33, 33.00000000000000000, #302 ) ;
#233 = PRODUCT_DEFINITION_SHAPE ( 'NONE', 'NONE',  #361 ) ;
#234 = DIRECTION ( 'NONE',  ( 0.0000000000000000000, -0.7071067811865515695, -0.7071067811865435759 ) ) ;
#235 = VERTEX_POINT ( 'NONE', #6 ) ;
#236 = ITEM_DEFINED_TRANSFORMATION ( 'NONE', 'NONE', #349,  #20 ) ;
#237 = DIRECTION ( 'NONE',  ( 0.0000000000000000000, 1.000000000000000000, -6.123233995732582608E-17 ) ) ;
#238 = CARTESIAN_POINT ( 'NONE',  ( 5.000000000000000000, 7.071067811865434649, -4.801055335612047211E-16 ) ) ;
#239 = PERSON_AND_ORGANIZATION_ROLE ( 'creator' ) ;
#240 = COORDINATED_UNIVERSAL_TIME_OFFSET ( 5, 0, .BEHIND. ) ;
#241 =( LENGTH_UNIT ( ) NAMED_UNIT ( * ) SI_UNIT ( .MILLI., .METRE. ) );
#242 = APPROVAL_PERSON_ORGANIZATION ( #255, #71, #269 ) ;
#243 = SECURITY_CLASSIFICATION ( '', '', #247 ) ;
#244 = CARTESIAN_POINT ( 'NONE',  ( -5.000000000000000000, 7.071067811865433761, -1.734723475976807094E-15 ) ) ;
#245 = DIRECTION ( 'NONE',  ( 1.000000000000000000, 0.0000000000000000000, 0.0000000000000000000 ) ) ;
#246 = PERSON ( 'NAUO-PER1', 'UNSPECIFIED', 'UNSPECIFIED', ('UNSPECIFIED'), ('UNSPECIFIED'), ('UNSPECIFIED') ) ;
#247 = SECURITY_CLASSIFICATION_LEVEL ( 'unclassified' ) ;
#248 = DATE_AND_TIME ( #309, #180 ) ;
#249 = APPROVAL ( #87, 'UNSPECIFIED' ) ;
#250 = SECURITY_CLASSIFICATION_LEVEL ( 'unclassified' ) ;
#251 = ORGANIZATION ( 'NAUO-ORG2', 'UNSPECIFIED', 'UNSPECIFIED' ) ;
#252 = DATE_AND_TIME ( #327, #232 ) ;
#253 = CC_DESIGN_PERSON_AND_ORGANIZATION_ASSIGNMENT ( #120, #141, ( #10 ) ) ;
#254 = VECTOR ( 'NONE', #132, 1000.000000000000000 ) ;
#255 = PERSON_AND_ORGANIZATION ( #271, #133 ) ;
#256 = DATE_AND_TIME ( #262, #270 ) ;
#257 = PRODUCT_DEFINITION_FORMATION_WITH_SPECIFIED_SOURCE ( 'ANY', '', #164, .NOT_KNOWN. ) ;
#258 = VECTOR ( 'NONE', #206, 1000.000000000000114 ) ;
#259 = APPROVAL_DATE_TIME ( #252, #34 ) ;
#260 = CC_DESIGN_APPROVAL ( #288, ( #10 ) ) ;
#261 = ORIENTED_EDGE ( 'NONE', *, *, #32, .F. ) ;
#262 = CALENDAR_DATE ( 2020, 29, 10 ) ;
#263 = APPLICATION_CONTEXT ( 'configuration controlled 3d designs of mechanical parts and assemblies' ) ;
#264 = DIRECTION ( 'NONE',  ( 0.0000000000000000000, -0.7071067811865513475, 0.7071067811865436870 ) ) ;
#265 = CARTESIAN_POINT ( 'NONE',  ( 0.0000000000000000000, 0.0000000000000000000, 0.0000000000000000000 ) ) ;
#266 = VERTEX_POINT ( 'NONE', #47 ) ;
#267 = CC_DESIGN_PERSON_AND_ORGANIZATION_ASSIGNMENT ( #194, #324, ( #140 ) ) ;
#268 = CARTESIAN_POINT ( 'NONE',  ( 0.0000000000000000000, 0.0000000000000000000, 0.0000000000000000000 ) ) ;
#269 = APPROVAL_ROLE ( '' ) ;
#270 = LOCAL_TIME ( 10, 33, 33.00000000000000000, #308 ) ;
#271 = PERSON ( 'UNSPECIFIED', 'UNSPECIFIED', 'UNSPECIFIED', ('UNSPECIFIED'), ('UNSPECIFIED'), ('UNSPECIFIED') ) ;
#272 = CC_DESIGN_SECURITY_CLASSIFICATION ( #243, ( #257 ) ) ;
#273 = SHAPE_REPRESENTATION_RELATIONSHIP ( 'NONE' , 'NONE' ,  #27, #351 ) ;
#274 = ORIENTED_EDGE ( 'NONE', *, *, #91, .T. ) ;
#275 = LOCAL_TIME ( 10, 33, 33.00000000000000000, #13 ) ;
#276 = DATE_AND_TIME ( #145, #111 ) ;
#277 = EDGE_CURVE ( 'NONE', #350, #344, #359, .T. ) ;
#278 = SHAPE_REPRESENTATION ( '10mm BEAMSPLITTER CUBE TS_13437', ( #282, #311, #349 ), #337 ) ;
#279 = PRODUCT_DEFINITION ( 'UNKNOWN', '', #204, #94 ) ;
#280 = ORIENTED_EDGE ( 'NONE', *, *, #25, .T. ) ;
#281 = LOCAL_TIME ( 10, 33, 33.00000000000000000, #208 ) ;
#282 = AXIS2_PLACEMENT_3D ( 'NONE', #268, #320, #79 ) ;
#283 = DATE_AND_TIME ( #174, #307 ) ;
#284 = EDGE_LOOP ( 'NONE', ( #205, #190, #229, #127 ) ) ;
#285 = DATE_AND_TIME ( #357, #147 ) ;
#286 = COORDINATED_UNIVERSAL_TIME_OFFSET ( 5, 0, .BEHIND. ) ;
#287 = AXIS2_PLACEMENT_3D ( 'NONE', #126, #234, #292 ) ;
#288 = APPROVAL ( #55, 'UNKNOWN' ) ;
#289 = UNCERTAINTY_MEASURE_WITH_UNIT (LENGTH_MEASURE( 1.000000000000000082E-05 ), #241, 'distance_accuracy_value', 'NONE');
#290 = PLANE ( 'NONE',  #112 ) ;
#291 = DIRECTION ( 'NONE',  ( 1.000000000000000000, 0.0000000000000000000, 0.0000000000000000000 ) ) ;
#292 = DIRECTION ( 'NONE',  ( 0.0000000000000000000, 0.7071067811865435759, -0.7071067811865515695 ) ) ;
#293 = DIRECTION ( 'NONE',  ( 0.0000000000000000000, 0.0000000000000000000, 1.000000000000000000 ) ) ;
#294 = LINE ( 'NONE', #181, #83 ) ;
#295 = CARTESIAN_POINT ( 'NONE',  ( -5.000000000000000000, 0.0000000000000000000, 7.071067811865514585 ) ) ;
#296 = DATE_AND_TIME ( #3, #199 ) ;
#297 = APPROVAL_STATUS ( 'not_yet_approved' ) ;
#298 =( LENGTH_UNIT ( ) NAMED_UNIT ( * ) SI_UNIT ( .MILLI., .METRE. ) );
#299 = PERSON_AND_ORGANIZATION_ROLE ( 'creator' ) ;
#300 = VERTEX_POINT ( 'NONE', #105 ) ;
#301 = PERSON_AND_ORGANIZATION_ROLE ( 'creator' ) ;
#302 = COORDINATED_UNIVERSAL_TIME_OFFSET ( 5, 0, .BEHIND. ) ;
#303 = PERSON_AND_ORGANIZATION_ROLE ( 'classification_officer' ) ;
#304 = AXIS2_PLACEMENT_3D ( 'NONE', #244, #187, #157 ) ;
#305 = SECURITY_CLASSIFICATION ( '', '', #250 ) ;
#306 = CALENDAR_DATE ( 2020, 29, 10 ) ;
#307 = LOCAL_TIME ( 10, 33, 33.00000000000000000, #240 ) ;
#308 = COORDINATED_UNIVERSAL_TIME_OFFSET ( 5, 0, .BEHIND. ) ;
#309 = CALENDAR_DATE ( 2020, 29, 10 ) ;
#310 = CARTESIAN_POINT ( 'NONE',  ( 5.000000000000000000, -8.659560562349064226E-16, -7.071067811865514585 ) ) ;
#311 = AXIS2_PLACEMENT_3D ( 'NONE', #265, #19, #291 ) ;
#312 = APPROVAL_PERSON_ORGANIZATION ( #355, #119, #191 ) ;
#313 = CC_DESIGN_DATE_AND_TIME_ASSIGNMENT ( #124, #185, ( #243 ) ) ;
#314 = APPROVAL_DATE_TIME ( #165, #193 ) ;
#315 = APPROVAL_STATUS ( 'not_yet_approved' ) ;
#316 = PERSON_AND_ORGANIZATION ( #271, #133 ) ;
#317 = DIRECTION ( 'NONE',  ( 0.0000000000000000000, -0.7071067811865436870, -0.7071067811865513475 ) ) ;
#318 = EDGE_CURVE ( 'NONE', #344, #144, #67, .T. ) ;
#319 = CARTESIAN_POINT ( 'NONE',  ( -5.000000000000000000, -8.659560562349064226E-16, -7.071067811865514585 ) ) ;
#320 = DIRECTION ( 'NONE',  ( 0.0000000000000000000, 0.0000000000000000000, 1.000000000000000000 ) ) ;
#321 = PERSON_AND_ORGANIZATION_ROLE ( 'creator' ) ;
#322 = FACE_OUTER_BOUND ( 'NONE', #329, .T. ) ;
#323 = CALENDAR_DATE ( 2020, 29, 10 ) ;
#324 = PERSON_AND_ORGANIZATION_ROLE ( 'design_owner' ) ;
#325 = DATE_TIME_ROLE ( 'classification_date' ) ;
#326 = AXIS2_PLACEMENT_3D ( 'NONE', #17, #264, #317 ) ;
#327 = CALENDAR_DATE ( 2020, 29, 10 ) ;
#328 = CC_DESIGN_DATE_AND_TIME_ASSIGNMENT ( #118, #26, ( #343 ) ) ;
#329 = EDGE_LOOP ( 'NONE', ( #52, #261, #331, #217 ) ) ;
#330 = COORDINATED_UNIVERSAL_TIME_OFFSET ( 5, 0, .BEHIND. ) ;
#331 = ORIENTED_EDGE ( 'NONE', *, *, #175, .F. ) ;
#332 = COORDINATED_UNIVERSAL_TIME_OFFSET ( 5, 0, .BEHIND. ) ;
#333 = CC_DESIGN_PERSON_AND_ORGANIZATION_ASSIGNMENT ( #23, #239, ( #257 ) ) ;
#334 = ORIENTED_EDGE ( 'NONE', *, *, #171, .F. ) ;
#335 = APPROVAL_PERSON_ORGANIZATION ( #198, #193, #57 ) ;
#336 = PERSON_AND_ORGANIZATION ( #271, #133 ) ;
#337 =( GEOMETRIC_REPRESENTATION_CONTEXT ( 3 ) GLOBAL_UNCERTAINTY_ASSIGNED_CONTEXT ( ( #289 ) ) GLOBAL_UNIT_ASSIGNED_CONTEXT ( ( #241, #134, #72 ) ) REPRESENTATION_CONTEXT ( 'NONE', 'WORKASPACE' ) );
#338 = CARTESIAN_POINT ( 'NONE',  ( -5.000000000000000000, 7.071067811865434649, -4.801055335612047211E-16 ) ) ;
#339 = CARTESIAN_POINT ( 'NONE',  ( 5.000000000000000000, -8.659560562349064226E-16, -7.071067811865514585 ) ) ;
#340 = ADVANCED_FACE ( 'NONE', ( #178 ), #108, .F. ) ;
#341 = VECTOR ( 'NONE', #137, 1000.000000000000114 ) ;
#342 = PERSON_AND_ORGANIZATION_ROLE ( 'classification_officer' ) ;
#343 = SECURITY_CLASSIFICATION ( '', '', #195 ) ;
#344 = VERTEX_POINT ( 'NONE', #345 ) ;
#345 = CARTESIAN_POINT ( 'NONE',  ( -5.000000000000000000, -8.659560562349064226E-16, -7.071067811865514585 ) ) ;
#346 = DIRECTION ( 'NONE',  ( -1.000000000000000000, 0.0000000000000000000, 0.0000000000000000000 ) ) ;
#347 = PERSON_AND_ORGANIZATION ( #271, #133 ) ;
#348 = APPLICATION_PROTOCOL_DEFINITION ( 'international standard', 'config_control_design', 1994, #263 ) ;
#349 = AXIS2_PLACEMENT_3D ( 'NONE', #44, #50, #70 ) ;
#350 = VERTEX_POINT ( 'NONE', #220 ) ;
#351 = ADVANCED_BREP_SHAPE_REPRESENTATION ( '', ( #43, #20 ), #166 ) ;
#352 = ORGANIZATION ( 'NAUO-ORG1', 'UNSPECIFIED', 'UNSPECIFIED' ) ;
#353 =( REPRESENTATION_RELATIONSHIP ('NONE','NONE', #278, #27 ) REPRESENTATION_RELATIONSHIP_WITH_TRANSFORMATION ( #203 )SHAPE_REPRESENTATION_RELATIONSHIP( ) );
#354 = CC_DESIGN_DATE_AND_TIME_ASSIGNMENT ( #103, #129, ( #279 ) ) ;
#355 = PERSON_AND_ORGANIZATION ( #271, #133 ) ;
#356 = EDGE_LOOP ( 'NONE', ( #97, #109, #58 ) ) ;
#357 = CALENDAR_DATE ( 2020, 29, 10 ) ;
#358 = APPROVAL_PERSON_ORGANIZATION ( #60, #249, #84 ) ;
#359 = LINE ( 'NONE', #295, #254 ) ;
#360 = NEXT_ASSEMBLY_USAGE_OCCURRENCE ( 'NAUO1', ' ', ' ', #122, #279, $ ) ;
#361 = NEXT_ASSEMBLY_USAGE_OCCURRENCE ( 'NAUO2', ' ', ' ', #122, #279, $ ) ;
ENDSEC;
END-ISO-10303-21;
