ISO-10303-21;
HEADER;
FILE_DESCRIPTION (( 'STEP AP203' ),
    '1' );
FILE_NAME ('Web Model 19837_19857.step',
    '2022-04-06T15:03:42',
    ( 'WC' ),
    ( 'Windows Central' ),
    'SwSTEP 2.0',
    'SolidWorks 2021',
    '' );
FILE_SCHEMA (( 'CONFIG_CONTROL_DESIGN' ));
ENDSEC;

DATA;
#1 = APPROVAL_PERSON_ORGANIZATION ( #125, #66, #12 ) ;
#2 = CALENDAR_DATE ( 2022, 6, 4 ) ;
#3 = APPROVAL_ROLE ( '' ) ;
#4 = ORIENTED_EDGE ( 'NONE', *, *, #17, .T. ) ;
#5 = CARTESIAN_POINT ( 'NONE',  ( -12.50000000000000000, 0.000000000000000000, 0.000000000000000000 ) ) ;
#6 = LINE ( 'NONE', #140, #37 ) ;
#7 = CYLINDRICAL_SURFACE ( 'NONE', #85, 12.50000000000000000 ) ;
#8 = CC_DESIGN_DATE_AND_TIME_ASSIGNMENT ( #124, #58, ( #100 ) ) ;
#9 = CARTESIAN_POINT ( 'NONE',  ( 0.000000000000000000, 0.000000000000000000, 3.000000000000000000 ) ) ;
#10 =( NAMED_UNIT ( * ) SI_UNIT ( $, .STERADIAN. ) SOLID_ANGLE_UNIT ( ) );
#11 = ORGANIZATION ( 'UNSPECIFIED', 'UNSPECIFIED', '' ) ;
#12 = APPROVAL_ROLE ( '' ) ;
#13 = DATE_AND_TIME ( #121, #108 ) ;
#14 = EDGE_CURVE ( 'NONE', #107, #80, #154, .T. ) ;
#15 = LOCAL_TIME ( 11, 3, 42.00000000000000000, #110 ) ;
#16 = APPLICATION_PROTOCOL_DEFINITION ( 'international standard', 'config_control_design', 1994, #47 ) ;
#17 = EDGE_CURVE ( 'NONE', #80, #173, #120, .T. ) ;
#18 = APPROVAL_STATUS ( 'not_yet_approved' ) ;
#19 = PERSON ( 'UNSPECIFIED', 'UNSPECIFIED', 'UNSPECIFIED', ('UNSPECIFIED'), ('UNSPECIFIED'), ('UNSPECIFIED') ) ;
#20 = CYLINDRICAL_SURFACE ( 'NONE', #78, 12.50000000000000000 ) ;
#21 = ORIENTED_EDGE ( 'NONE', *, *, #14, .T. ) ;
#22 = CC_DESIGN_SECURITY_CLASSIFICATION ( #100, ( #115 ) ) ;
#23 = CARTESIAN_POINT ( 'NONE',  ( 12.50000000000000000, 1.530808498934191521E-15, 3.000000000000000000 ) ) ;
#24 =( NAMED_UNIT ( * ) PLANE_ANGLE_UNIT ( ) SI_UNIT ( $, .RADIAN. ) );
#25 = CC_DESIGN_APPROVAL ( #149, ( #100 ) ) ;
#26 = ORIENTED_EDGE ( 'NONE', *, *, #135, .F. ) ;
#27 = CIRCLE ( 'NONE', #113, 12.50000000000000000 ) ;
#28 = AXIS2_PLACEMENT_3D ( 'NONE', #73, #63, #88 ) ;
#29 = UNCERTAINTY_MEASURE_WITH_UNIT (LENGTH_MEASURE( 1.000000000000000082E-05 ), #119, 'distance_accuracy_value', 'NONE');
#30 = DIRECTION ( 'NONE',  ( 1.000000000000000000, 0.000000000000000000, 0.000000000000000000 ) ) ;
#31 = APPROVAL_DATE_TIME ( #46, #79 ) ;
#32 = PERSON_AND_ORGANIZATION_ROLE ( 'design_owner' ) ;
#33 = PRODUCT_DEFINITION ( 'UNKNOWN', '', #115, #143 ) ;
#34 = LOCAL_TIME ( 11, 3, 42.00000000000000000, #59 ) ;
#35 = PERSON_AND_ORGANIZATION_ROLE ( 'creator' ) ;
#36 = CALENDAR_DATE ( 2022, 6, 4 ) ;
#37 = VECTOR ( 'NONE', #139, 1000.000000000000000 ) ;
#38 = CARTESIAN_POINT ( 'NONE',  ( 0.000000000000000000, 0.000000000000000000, 3.000000000000000000 ) ) ;
#39 = VECTOR ( 'NONE', #62, 1000.000000000000000 ) ;
#40 = CARTESIAN_POINT ( 'NONE',  ( 12.50000000000000000, 1.530808498934191521E-15, 0.000000000000000000 ) ) ;
#41 = ORIENTED_EDGE ( 'NONE', *, *, #138, .F. ) ;
#42 = DIRECTION ( 'NONE',  ( 1.000000000000000000, 0.000000000000000000, 0.000000000000000000 ) ) ;
#43 = ORIENTED_EDGE ( 'NONE', *, *, #98, .F. ) ;
#44 = CC_DESIGN_PERSON_AND_ORGANIZATION_ASSIGNMENT ( #93, #133, ( #100 ) ) ;
#45 = PERSON_AND_ORGANIZATION_ROLE ( 'creator' ) ;
#46 = DATE_AND_TIME ( #36, #15 ) ;
#47 = APPLICATION_CONTEXT ( 'configuration controlled 3d designs of mechanical parts and assemblies' ) ;
#48 = PERSON_AND_ORGANIZATION ( #19, #11 ) ;
#49 = MECHANICAL_CONTEXT ( 'NONE', #47, 'mechanical' ) ;
#50 = DATE_AND_TIME ( #2, #34 ) ;
#51 = ORIENTED_EDGE ( 'NONE', *, *, #17, .F. ) ;
#52 = CARTESIAN_POINT ( 'NONE',  ( 0.000000000000000000, 0.000000000000000000, 3.000000000000000000 ) ) ;
#53 = DIRECTION ( 'NONE',  ( 0.000000000000000000, 0.000000000000000000, 1.000000000000000000 ) ) ;
#54 = CIRCLE ( 'NONE', #77, 12.50000000000000000 ) ;
#55 = FACE_OUTER_BOUND ( 'NONE', #101, .T. ) ;
#56 = ORIENTED_EDGE ( 'NONE', *, *, #159, .T. ) ;
#57 = SECURITY_CLASSIFICATION_LEVEL ( 'unclassified' ) ;
#58 = DATE_TIME_ROLE ( 'classification_date' ) ;
#59 = COORDINATED_UNIVERSAL_TIME_OFFSET ( 5, 0, .BEHIND. ) ;
#60 = DIRECTION ( 'NONE',  ( 0.000000000000000000, 0.000000000000000000, 1.000000000000000000 ) ) ;
#61 = ORIENTED_EDGE ( 'NONE', *, *, #98, .T. ) ;
#62 = DIRECTION ( 'NONE',  ( -0.000000000000000000, -0.000000000000000000, -1.000000000000000000 ) ) ;
#63 = DIRECTION ( 'NONE',  ( 0.000000000000000000, 0.000000000000000000, 1.000000000000000000 ) ) ;
#64 = DIRECTION ( 'NONE',  ( 0.000000000000000000, 0.000000000000000000, 1.000000000000000000 ) ) ;
#65 = ORIENTED_EDGE ( 'NONE', *, *, #14, .F. ) ;
#66 = APPROVAL ( #96, 'UNSPECIFIED' ) ;
#67 = CALENDAR_DATE ( 2022, 6, 4 ) ;
#68 = ADVANCED_FACE ( 'NONE', ( #160 ), #20, .T. ) ;
#69 = DIRECTION ( 'NONE',  ( 1.000000000000000000, 0.000000000000000000, 0.000000000000000000 ) ) ;
#70 = APPROVAL_DATE_TIME ( #97, #149 ) ;
#71 = ADVANCED_FACE ( 'NONE', ( #55 ), #168, .F. ) ;
#72 = LOCAL_TIME ( 11, 3, 42.00000000000000000, #174 ) ;
#73 = CARTESIAN_POINT ( 'NONE',  ( 0.000000000000000000, 0.000000000000000000, 0.000000000000000000 ) ) ;
#74 = DIRECTION ( 'NONE',  ( 0.000000000000000000, 0.000000000000000000, 1.000000000000000000 ) ) ;
#75 = DIRECTION ( 'NONE',  ( -0.000000000000000000, -0.000000000000000000, -1.000000000000000000 ) ) ;
#76 = ADVANCED_FACE ( 'NONE', ( #92 ), #158, .T. ) ;
#77 = AXIS2_PLACEMENT_3D ( 'NONE', #104, #53, #112 ) ;
#78 = AXIS2_PLACEMENT_3D ( 'NONE', #38, #75, #118 ) ;
#79 = APPROVAL ( #18, 'UNSPECIFIED' ) ;
#80 = VERTEX_POINT ( 'NONE', #5 ) ;
#81 = PERSON_AND_ORGANIZATION ( #19, #11 ) ;
#82 = PERSON_AND_ORGANIZATION_ROLE ( 'design_supplier' ) ;
#83 = AXIS2_PLACEMENT_3D ( 'NONE', #94, #146, #69 ) ;
#84 = PERSON_AND_ORGANIZATION ( #19, #11 ) ;
#85 = AXIS2_PLACEMENT_3D ( 'NONE', #9, #169, #157 ) ;
#86 = CARTESIAN_POINT ( 'NONE',  ( -12.50000000000000000, 0.000000000000000000, 3.000000000000000000 ) ) ;
#87 = DIRECTION ( 'NONE',  ( 1.000000000000000000, 0.000000000000000000, 0.000000000000000000 ) ) ;
#88 = DIRECTION ( 'NONE',  ( 1.000000000000000000, 0.000000000000000000, -0.000000000000000000 ) ) ;
#89 = CARTESIAN_POINT ( 'NONE',  ( 0.000000000000000000, 0.000000000000000000, 3.000000000000000000 ) ) ;
#90 = APPLICATION_CONTEXT ( 'configuration controlled 3d designs of mechanical parts and assemblies' ) ;
#91 = CC_DESIGN_APPROVAL ( #66, ( #33 ) ) ;
#92 = FACE_OUTER_BOUND ( 'NONE', #167, .T. ) ;
#93 = PERSON_AND_ORGANIZATION ( #19, #11 ) ;
#94 = CARTESIAN_POINT ( 'NONE',  ( 0.000000000000000000, 0.000000000000000000, 0.000000000000000000 ) ) ;
#95 = PRODUCT_DEFINITION_SHAPE ( 'NONE', 'NONE',  #33 ) ;
#96 = APPROVAL_STATUS ( 'not_yet_approved' ) ;
#97 = DATE_AND_TIME ( #165, #170 ) ;
#98 = EDGE_CURVE ( 'NONE', #173, #80, #27, .T. ) ;
#99 = APPROVAL_DATE_TIME ( #50, #66 ) ;
#100 = SECURITY_CLASSIFICATION ( '', '', #57 ) ;
#101 = EDGE_LOOP ( 'NONE', ( #51, #43 ) ) ;
#102 = CARTESIAN_POINT ( 'NONE',  ( -12.50000000000000000, 0.000000000000000000, 3.000000000000000000 ) ) ;
#103 = CC_DESIGN_PERSON_AND_ORGANIZATION_ASSIGNMENT ( #81, #45, ( #115 ) ) ;
#104 = CARTESIAN_POINT ( 'NONE',  ( 0.000000000000000000, 0.000000000000000000, 3.000000000000000000 ) ) ;
#105 =( GEOMETRIC_REPRESENTATION_CONTEXT ( 3 ) GLOBAL_UNCERTAINTY_ASSIGNED_CONTEXT ( ( #29 ) ) GLOBAL_UNIT_ASSIGNED_CONTEXT ( ( #119, #24, #10 ) ) REPRESENTATION_CONTEXT ( 'NONE', 'WORKASPACE' ) );
#106 = CC_DESIGN_PERSON_AND_ORGANIZATION_ASSIGNMENT ( #148, #35, ( #33 ) ) ;
#107 = VERTEX_POINT ( 'NONE', #102 ) ;
#108 = LOCAL_TIME ( 11, 3, 42.00000000000000000, #132 ) ;
#109 = PERSON_AND_ORGANIZATION ( #19, #11 ) ;
#110 = COORDINATED_UNIVERSAL_TIME_OFFSET ( 5, 0, .BEHIND. ) ;
#111 = MANIFOLD_SOLID_BREP ( 'Boss-Extrude1', #156 ) ;
#112 = DIRECTION ( 'NONE',  ( 1.000000000000000000, 0.000000000000000000, 0.000000000000000000 ) ) ;
#113 = AXIS2_PLACEMENT_3D ( 'NONE', #127, #60, #30 ) ;
#114 = EDGE_LOOP ( 'NONE', ( #41, #130, #21, #4 ) ) ;
#115 = PRODUCT_DEFINITION_FORMATION_WITH_SPECIFIED_SOURCE ( 'ANY', '', #145, .NOT_KNOWN. ) ;
#116 = CARTESIAN_POINT ( 'NONE',  ( 0.000000000000000000, 0.000000000000000000, 0.000000000000000000 ) ) ;
#117 = CC_DESIGN_PERSON_AND_ORGANIZATION_ASSIGNMENT ( #164, #32, ( #145 ) ) ;
#118 = DIRECTION ( 'NONE',  ( -1.000000000000000000, 0.000000000000000000, 0.000000000000000000 ) ) ;
#119 =( LENGTH_UNIT ( ) NAMED_UNIT ( * ) SI_UNIT ( .MILLI., .METRE. ) );
#120 = CIRCLE ( 'NONE', #162, 12.50000000000000000 ) ;
#121 = CALENDAR_DATE ( 2022, 6, 4 ) ;
#122 = AXIS2_PLACEMENT_3D ( 'NONE', #52, #142, #171 ) ;
#123 = CIRCLE ( 'NONE', #163, 12.50000000000000000 ) ;
#124 = DATE_AND_TIME ( #67, #72 ) ;
#125 = PERSON_AND_ORGANIZATION ( #19, #11 ) ;
#126 = SHAPE_DEFINITION_REPRESENTATION ( #95, #172 ) ;
#127 = CARTESIAN_POINT ( 'NONE',  ( 0.000000000000000000, 0.000000000000000000, 0.000000000000000000 ) ) ;
#128 = APPROVAL_PERSON_ORGANIZATION ( #109, #79, #3 ) ;
#129 = FACE_OUTER_BOUND ( 'NONE', #114, .T. ) ;
#130 = ORIENTED_EDGE ( 'NONE', *, *, #159, .F. ) ;
#131 = CC_DESIGN_PERSON_AND_ORGANIZATION_ASSIGNMENT ( #48, #82, ( #115 ) ) ;
#132 = COORDINATED_UNIVERSAL_TIME_OFFSET ( 5, 0, .BEHIND. ) ;
#133 = PERSON_AND_ORGANIZATION_ROLE ( 'classification_officer' ) ;
#134 = APPROVAL_ROLE ( '' ) ;
#135 = EDGE_CURVE ( 'NONE', #153, #107, #123, .T. ) ;
#136 = COORDINATED_UNIVERSAL_TIME_OFFSET ( 5, 0, .BEHIND. ) ;
#137 = ORIENTED_EDGE ( 'NONE', *, *, #135, .T. ) ;
#138 = EDGE_CURVE ( 'NONE', #153, #173, #6, .T. ) ;
#139 = DIRECTION ( 'NONE',  ( -0.000000000000000000, -0.000000000000000000, -1.000000000000000000 ) ) ;
#140 = CARTESIAN_POINT ( 'NONE',  ( 12.50000000000000000, 1.530808498934191521E-15, 3.000000000000000000 ) ) ;
#141 = PRODUCT_RELATED_PRODUCT_CATEGORY ( 'detail', '', ( #145 ) ) ;
#142 = DIRECTION ( 'NONE',  ( 0.000000000000000000, 0.000000000000000000, 1.000000000000000000 ) ) ;
#143 = DESIGN_CONTEXT ( 'detailed design', #90, 'design' ) ;
#144 = DATE_TIME_ROLE ( 'creation_date' ) ;
#145 = PRODUCT ( 'Web Model 19837_19857', 'Web Model 19837_19857', '', ( #49 ) ) ;
#146 = DIRECTION ( 'NONE',  ( 0.000000000000000000, 0.000000000000000000, 1.000000000000000000 ) ) ;
#147 = APPROVAL_STATUS ( 'not_yet_approved' ) ;
#148 = PERSON_AND_ORGANIZATION ( #19, #11 ) ;
#149 = APPROVAL ( #147, 'UNSPECIFIED' ) ;
#150 = ORIENTED_EDGE ( 'NONE', *, *, #138, .T. ) ;
#151 = CC_DESIGN_APPROVAL ( #79, ( #115 ) ) ;
#152 = EDGE_LOOP ( 'NONE', ( #26, #150, #61, #65 ) ) ;
#153 = VERTEX_POINT ( 'NONE', #23 ) ;
#154 = LINE ( 'NONE', #86, #39 ) ;
#155 = ADVANCED_FACE ( 'NONE', ( #129 ), #7, .T. ) ;
#156 = CLOSED_SHELL ( 'NONE', ( #68, #155, #76, #71 ) ) ;
#157 = DIRECTION ( 'NONE',  ( -1.000000000000000000, 0.000000000000000000, 0.000000000000000000 ) ) ;
#158 = PLANE ( 'NONE',  #122 ) ;
#159 = EDGE_CURVE ( 'NONE', #107, #153, #54, .T. ) ;
#160 = FACE_OUTER_BOUND ( 'NONE', #152, .T. ) ;
#161 = APPLICATION_PROTOCOL_DEFINITION ( 'international standard', 'config_control_design', 1994, #90 ) ;
#162 = AXIS2_PLACEMENT_3D ( 'NONE', #116, #64, #42 ) ;
#163 = AXIS2_PLACEMENT_3D ( 'NONE', #89, #74, #87 ) ;
#164 = PERSON_AND_ORGANIZATION ( #19, #11 ) ;
#165 = CALENDAR_DATE ( 2022, 6, 4 ) ;
#166 = APPROVAL_PERSON_ORGANIZATION ( #84, #149, #134 ) ;
#167 = EDGE_LOOP ( 'NONE', ( #56, #137 ) ) ;
#168 = PLANE ( 'NONE',  #28 ) ;
#169 = DIRECTION ( 'NONE',  ( -0.000000000000000000, -0.000000000000000000, -1.000000000000000000 ) ) ;
#170 = LOCAL_TIME ( 11, 3, 42.00000000000000000, #136 ) ;
#171 = DIRECTION ( 'NONE',  ( 1.000000000000000000, 0.000000000000000000, -0.000000000000000000 ) ) ;
#172 = ADVANCED_BREP_SHAPE_REPRESENTATION ( 'Web Model 19837_19857', ( #111, #83 ), #105 ) ;
#173 = VERTEX_POINT ( 'NONE', #40 ) ;
#174 = COORDINATED_UNIVERSAL_TIME_OFFSET ( 5, 0, .BEHIND. ) ;
#175 = CC_DESIGN_DATE_AND_TIME_ASSIGNMENT ( #13, #144, ( #33 ) ) ;
ENDSEC;
END-ISO-10303-21;
