ISO-10303-21;
HEADER;
FILE_DESCRIPTION (( 'STEP AP203' ),
    '1' );
FILE_NAME ('34430_Default.step',
    '2017-06-22T14:41:37',
    ( '' ),
    ( '' ),
    'SwSTEP 2.0',
    'SolidWorks 2016',
    '' );
FILE_SCHEMA (( 'CONFIG_CONTROL_DESIGN' ));
ENDSEC;

DATA;
#1 = VECTOR ( 'NONE', #129, 1000.000000000000000 ) ;
#2 = LOCAL_TIME ( 10, 41, 37.00000000000000000, #72 ) ;
#3 = AXIS2_PLACEMENT_3D ( 'NONE', #142, #150, #105 ) ;
#4 = DIRECTION ( 'NONE',  ( 1.000000000000000000, 0.0000000000000000000, 0.0000000000000000000 ) ) ;
#5 = DIRECTION ( 'NONE',  ( 0.0000000000000000000, 0.0000000000000000000, 1.000000000000000000 ) ) ;
#6 = APPROVAL_DATE_TIME ( #37, #33 ) ;
#7 = EDGE_LOOP ( 'NONE', ( #122, #138, #67, #23 ) ) ;
#8 = ORIENTED_EDGE ( 'NONE', *, *, #136, .T. ) ;
#9 = CALENDAR_DATE ( 2017, 22, 6 ) ;
#10 = PERSON_AND_ORGANIZATION_ROLE ( 'design_supplier' ) ;
#11 = AXIS2_PLACEMENT_3D ( 'NONE', #120, #5, #4 ) ;
#12 = CYLINDRICAL_SURFACE ( 'NONE', #165, 25.00000000000000000 ) ;
#13 = DIRECTION ( 'NONE',  ( 1.000000000000000000, 0.0000000000000000000, 0.0000000000000000000 ) ) ;
#14 = PRODUCT_DEFINITION_FORMATION_WITH_SPECIFIED_SOURCE ( 'ANY', '', #145, .NOT_KNOWN. ) ;
#15 = COORDINATED_UNIVERSAL_TIME_OFFSET ( 5, 0, .BEHIND. ) ;
#16 = CALENDAR_DATE ( 2017, 22, 6 ) ;
#17 = SECURITY_CLASSIFICATION ( '', '', #73 ) ;
#18 = ORGANIZATION ( 'UNSPECIFIED', 'UNSPECIFIED', '' ) ;
#19 = ORIENTED_EDGE ( 'NONE', *, *, #20, .F. ) ;
#20 = EDGE_CURVE ( 'NONE', #126, #164, #106, .T. ) ;
#21 = CALENDAR_DATE ( 2017, 22, 6 ) ;
#22 = APPLICATION_CONTEXT ( 'configuration controlled 3d designs of mechanical parts and assemblies' ) ;
#23 = ORIENTED_EDGE ( 'NONE', *, *, #20, .T. ) ;
#24 = CARTESIAN_POINT ( 'NONE',  ( 0.0000000000000000000, 0.0000000000000000000, 6.000000000000000000 ) ) ;
#25 =( GEOMETRIC_REPRESENTATION_CONTEXT ( 3 ) GLOBAL_UNCERTAINTY_ASSIGNED_CONTEXT ( ( #158 ) ) GLOBAL_UNIT_ASSIGNED_CONTEXT ( ( #92, #162, #82 ) ) REPRESENTATION_CONTEXT ( 'NONE', 'WORKASPACE' ) );
#26 = ORIENTED_EDGE ( 'NONE', *, *, #141, .F. ) ;
#27 = MECHANICAL_CONTEXT ( 'NONE', #135, 'mechanical' ) ;
#28 = LOCAL_TIME ( 10, 41, 37.00000000000000000, #161 ) ;
#29 = CARTESIAN_POINT ( 'NONE',  ( 0.0000000000000000000, 0.0000000000000000000, 6.000000000000000000 ) ) ;
#30 = PRODUCT_DEFINITION ( 'UNKNOWN', '', #14, #90 ) ;
#31 = LOCAL_TIME ( 10, 41, 37.00000000000000000, #58 ) ;
#32 = SHAPE_DEFINITION_REPRESENTATION ( #173, #152 ) ;
#33 = APPROVAL ( #121, 'UNSPECIFIED' ) ;
#34 = ADVANCED_FACE ( 'NONE', ( #130 ), #12, .T. ) ;
#35 = CALENDAR_DATE ( 2017, 22, 6 ) ;
#36 = APPLICATION_PROTOCOL_DEFINITION ( 'international standard', 'config_control_design', 1994, #135 ) ;
#37 = DATE_AND_TIME ( #35, #31 ) ;
#38 = DIRECTION ( 'NONE',  ( -0.0000000000000000000, -0.0000000000000000000, -1.000000000000000000 ) ) ;
#39 = CARTESIAN_POINT ( 'NONE',  ( -25.00000000000000000, 0.0000000000000000000, 6.000000000000000000 ) ) ;
#40 = AXIS2_PLACEMENT_3D ( 'NONE', #29, #167, #98 ) ;
#41 = VERTEX_POINT ( 'NONE', #147 ) ;
#42 = DIRECTION ( 'NONE',  ( 1.000000000000000000, 0.0000000000000000000, 0.0000000000000000000 ) ) ;
#43 = AXIS2_PLACEMENT_3D ( 'NONE', #48, #56, #13 ) ;
#44 = PERSON_AND_ORGANIZATION ( #156, #18 ) ;
#45 = DIRECTION ( 'NONE',  ( 1.000000000000000000, 0.0000000000000000000, -0.0000000000000000000 ) ) ;
#46 = ADVANCED_FACE ( 'NONE', ( #111 ), #107, .T. ) ;
#47 = PERSON_AND_ORGANIZATION ( #156, #18 ) ;
#48 = CARTESIAN_POINT ( 'NONE',  ( 0.0000000000000000000, 0.0000000000000000000, 6.000000000000000000 ) ) ;
#49 = CYLINDRICAL_SURFACE ( 'NONE', #40, 25.00000000000000000 ) ;
#50 = CARTESIAN_POINT ( 'NONE',  ( 0.0000000000000000000, 0.0000000000000000000, 6.000000000000000000 ) ) ;
#51 = EDGE_LOOP ( 'NONE', ( #19, #26 ) ) ;
#52 = CC_DESIGN_PERSON_AND_ORGANIZATION_ASSIGNMENT ( #95, #143, ( #17 ) ) ;
#53 = DIRECTION ( 'NONE',  ( 0.0000000000000000000, 0.0000000000000000000, 1.000000000000000000 ) ) ;
#54 = DATE_TIME_ROLE ( 'classification_date' ) ;
#55 = APPROVAL_ROLE ( '' ) ;
#56 = DIRECTION ( 'NONE',  ( 0.0000000000000000000, 0.0000000000000000000, 1.000000000000000000 ) ) ;
#57 = CARTESIAN_POINT ( 'NONE',  ( 0.0000000000000000000, 0.0000000000000000000, 0.0000000000000000000 ) ) ;
#58 = COORDINATED_UNIVERSAL_TIME_OFFSET ( 5, 0, .BEHIND. ) ;
#59 = APPROVAL_DATE_TIME ( #61, #137 ) ;
#60 = ORIENTED_EDGE ( 'NONE', *, *, #174, .T. ) ;
#61 = DATE_AND_TIME ( #146, #109 ) ;
#62 = FACE_OUTER_BOUND ( 'NONE', #51, .T. ) ;
#63 = EDGE_LOOP ( 'NONE', ( #60, #148 ) ) ;
#64 = LOCAL_TIME ( 10, 41, 37.00000000000000000, #159 ) ;
#65 = ORIENTED_EDGE ( 'NONE', *, *, #91, .F. ) ;
#66 = APPROVAL ( #68, 'UNSPECIFIED' ) ;
#67 = ORIENTED_EDGE ( 'NONE', *, *, #97, .T. ) ;
#68 = APPROVAL_STATUS ( 'not_yet_approved' ) ;
#69 = ADVANCED_FACE ( 'NONE', ( #103 ), #49, .T. ) ;
#70 = APPROVAL_PERSON_ORGANIZATION ( #102, #137, #169 ) ;
#71 = LINE ( 'NONE', #77, #1 ) ;
#72 = COORDINATED_UNIVERSAL_TIME_OFFSET ( 5, 0, .BEHIND. ) ;
#73 = SECURITY_CLASSIFICATION_LEVEL ( 'unclassified' ) ;
#74 = APPROVAL_PERSON_ORGANIZATION ( #47, #66, #132 ) ;
#75 = CC_DESIGN_PERSON_AND_ORGANIZATION_ASSIGNMENT ( #100, #10, ( #14 ) ) ;
#76 = CLOSED_SHELL ( 'NONE', ( #34, #69, #46, #151 ) ) ;
#77 = CARTESIAN_POINT ( 'NONE',  ( 25.00000000000000000, 3.061616997868383000E-015, 6.000000000000000000 ) ) ;
#78 = PERSON_AND_ORGANIZATION_ROLE ( 'creator' ) ;
#79 = VERTEX_POINT ( 'NONE', #155 ) ;
#80 = DIRECTION ( 'NONE',  ( 0.0000000000000000000, 0.0000000000000000000, 1.000000000000000000 ) ) ;
#81 = CC_DESIGN_APPROVAL ( #66, ( #14 ) ) ;
#82 =( NAMED_UNIT ( * ) SI_UNIT ( $, .STERADIAN. ) SOLID_ANGLE_UNIT ( ) );
#83 = APPLICATION_PROTOCOL_DEFINITION ( 'international standard', 'config_control_design', 1994, #22 ) ;
#84 = DIRECTION ( 'NONE',  ( 0.0000000000000000000, 0.0000000000000000000, 1.000000000000000000 ) ) ;
#85 = APPROVAL_DATE_TIME ( #131, #66 ) ;
#86 = CIRCLE ( 'NONE', #160, 25.00000000000000000 ) ;
#87 = MANIFOLD_SOLID_BREP ( 'Boss-Extrude1', #76 ) ;
#88 = DIRECTION ( 'NONE',  ( 0.0000000000000000000, 0.0000000000000000000, 1.000000000000000000 ) ) ;
#89 = CC_DESIGN_APPROVAL ( #137, ( #17 ) ) ;
#90 = DESIGN_CONTEXT ( 'detailed design', #22, 'design' ) ;
#91 = EDGE_CURVE ( 'NONE', #79, #41, #86, .T. ) ;
#92 =( LENGTH_UNIT ( ) NAMED_UNIT ( * ) SI_UNIT ( .MILLI., .METRE. ) );
#93 = PERSON_AND_ORGANIZATION ( #156, #18 ) ;
#94 = CC_DESIGN_PERSON_AND_ORGANIZATION_ASSIGNMENT ( #44, #78, ( #30 ) ) ;
#95 = PERSON_AND_ORGANIZATION ( #156, #18 ) ;
#96 = APPROVAL_STATUS ( 'not_yet_approved' ) ;
#97 = EDGE_CURVE ( 'NONE', #41, #126, #153, .T. ) ;
#98 = DIRECTION ( 'NONE',  ( -1.000000000000000000, 0.0000000000000000000, 0.0000000000000000000 ) ) ;
#99 = DATE_TIME_ROLE ( 'creation_date' ) ;
#100 = PERSON_AND_ORGANIZATION ( #156, #18 ) ;
#101 = CARTESIAN_POINT ( 'NONE',  ( 0.0000000000000000000, 0.0000000000000000000, 6.000000000000000000 ) ) ;
#102 = PERSON_AND_ORGANIZATION ( #156, #18 ) ;
#103 = FACE_OUTER_BOUND ( 'NONE', #7, .T. ) ;
#104 = CARTESIAN_POINT ( 'NONE',  ( 0.0000000000000000000, 0.0000000000000000000, 0.0000000000000000000 ) ) ;
#105 = DIRECTION ( 'NONE',  ( 1.000000000000000000, 0.0000000000000000000, -0.0000000000000000000 ) ) ;
#106 = CIRCLE ( 'NONE', #172, 25.00000000000000000 ) ;
#107 = PLANE ( 'NONE',  #112 ) ;
#108 = DIRECTION ( 'NONE',  ( -1.000000000000000000, 0.0000000000000000000, 0.0000000000000000000 ) ) ;
#109 = LOCAL_TIME ( 10, 41, 37.00000000000000000, #15 ) ;
#110 = DIRECTION ( 'NONE',  ( 1.000000000000000000, 0.0000000000000000000, 0.0000000000000000000 ) ) ;
#111 = FACE_OUTER_BOUND ( 'NONE', #63, .T. ) ;
#112 = AXIS2_PLACEMENT_3D ( 'NONE', #50, #84, #45 ) ;
#113 = ORIENTED_EDGE ( 'NONE', *, *, #97, .F. ) ;
#114 = CARTESIAN_POINT ( 'NONE',  ( -25.00000000000000000, 0.0000000000000000000, 0.0000000000000000000 ) ) ;
#115 = DIRECTION ( 'NONE',  ( 1.000000000000000000, 0.0000000000000000000, 0.0000000000000000000 ) ) ;
#116 = CC_DESIGN_DATE_AND_TIME_ASSIGNMENT ( #175, #99, ( #30 ) ) ;
#117 = CIRCLE ( 'NONE', #43, 25.00000000000000000 ) ;
#118 = PRODUCT_RELATED_PRODUCT_CATEGORY ( 'detail', '', ( #145 ) ) ;
#119 = PERSON_AND_ORGANIZATION_ROLE ( 'creator' ) ;
#120 = CARTESIAN_POINT ( 'NONE',  ( 0.0000000000000000000, 0.0000000000000000000, 0.0000000000000000000 ) ) ;
#121 = APPROVAL_STATUS ( 'not_yet_approved' ) ;
#122 = ORIENTED_EDGE ( 'NONE', *, *, #136, .F. ) ;
#123 = PLANE ( 'NONE',  #3 ) ;
#124 = EDGE_LOOP ( 'NONE', ( #65, #8, #125, #113 ) ) ;
#125 = ORIENTED_EDGE ( 'NONE', *, *, #141, .T. ) ;
#126 = VERTEX_POINT ( 'NONE', #114 ) ;
#127 = CIRCLE ( 'NONE', #11, 25.00000000000000000 ) ;
#128 = CC_DESIGN_APPROVAL ( #33, ( #30 ) ) ;
#129 = DIRECTION ( 'NONE',  ( -0.0000000000000000000, -0.0000000000000000000, -1.000000000000000000 ) ) ;
#130 = FACE_OUTER_BOUND ( 'NONE', #124, .T. ) ;
#131 = DATE_AND_TIME ( #21, #64 ) ;
#132 = APPROVAL_ROLE ( '' ) ;
#133 = DIRECTION ( 'NONE',  ( -0.0000000000000000000, -0.0000000000000000000, -1.000000000000000000 ) ) ;
#134 = AXIS2_PLACEMENT_3D ( 'NONE', #104, #88, #115 ) ;
#135 = APPLICATION_CONTEXT ( 'configuration controlled 3d designs of mechanical parts and assemblies' ) ;
#136 = EDGE_CURVE ( 'NONE', #79, #164, #71, .T. ) ;
#137 = APPROVAL ( #96, 'UNSPECIFIED' ) ;
#138 = ORIENTED_EDGE ( 'NONE', *, *, #174, .F. ) ;
#139 = CC_DESIGN_SECURITY_CLASSIFICATION ( #17, ( #14 ) ) ;
#140 = PERSON_AND_ORGANIZATION ( #156, #18 ) ;
#141 = EDGE_CURVE ( 'NONE', #164, #126, #127, .T. ) ;
#142 = CARTESIAN_POINT ( 'NONE',  ( 0.0000000000000000000, 0.0000000000000000000, 0.0000000000000000000 ) ) ;
#143 = PERSON_AND_ORGANIZATION_ROLE ( 'classification_officer' ) ;
#144 = PERSON_AND_ORGANIZATION ( #156, #18 ) ;
#145 = PRODUCT ( '34430_Default', '34430_Default', '', ( #27 ) ) ;
#146 = CALENDAR_DATE ( 2017, 22, 6 ) ;
#147 = CARTESIAN_POINT ( 'NONE',  ( -25.00000000000000000, 0.0000000000000000000, 6.000000000000000000 ) ) ;
#148 = ORIENTED_EDGE ( 'NONE', *, *, #91, .T. ) ;
#149 = CC_DESIGN_DATE_AND_TIME_ASSIGNMENT ( #154, #54, ( #17 ) ) ;
#150 = DIRECTION ( 'NONE',  ( 0.0000000000000000000, 0.0000000000000000000, 1.000000000000000000 ) ) ;
#151 = ADVANCED_FACE ( 'NONE', ( #62 ), #123, .F. ) ;
#152 = ADVANCED_BREP_SHAPE_REPRESENTATION ( '34430_Default', ( #87, #134 ), #25 ) ;
#153 = LINE ( 'NONE', #39, #166 ) ;
#154 = DATE_AND_TIME ( #16, #2 ) ;
#155 = CARTESIAN_POINT ( 'NONE',  ( 25.00000000000000000, 3.061616997868383000E-015, 6.000000000000000000 ) ) ;
#156 = PERSON ( 'UNSPECIFIED', 'UNSPECIFIED', 'UNSPECIFIED', ('UNSPECIFIED'), ('UNSPECIFIED'), ('UNSPECIFIED') ) ;
#157 = CARTESIAN_POINT ( 'NONE',  ( 25.00000000000000000, 3.061616997868383000E-015, 0.0000000000000000000 ) ) ;
#158 = UNCERTAINTY_MEASURE_WITH_UNIT (LENGTH_MEASURE( 1.000000000000000100E-005 ), #92, 'distance_accuracy_value', 'NONE');
#159 = COORDINATED_UNIVERSAL_TIME_OFFSET ( 5, 0, .BEHIND. ) ;
#160 = AXIS2_PLACEMENT_3D ( 'NONE', #101, #53, #42 ) ;
#161 = COORDINATED_UNIVERSAL_TIME_OFFSET ( 5, 0, .BEHIND. ) ;
#162 =( NAMED_UNIT ( * ) PLANE_ANGLE_UNIT ( ) SI_UNIT ( $, .RADIAN. ) );
#163 = CC_DESIGN_PERSON_AND_ORGANIZATION_ASSIGNMENT ( #93, #119, ( #14 ) ) ;
#164 = VERTEX_POINT ( 'NONE', #157 ) ;
#165 = AXIS2_PLACEMENT_3D ( 'NONE', #24, #133, #108 ) ;
#166 = VECTOR ( 'NONE', #38, 1000.000000000000000 ) ;
#167 = DIRECTION ( 'NONE',  ( -0.0000000000000000000, -0.0000000000000000000, -1.000000000000000000 ) ) ;
#168 = PERSON_AND_ORGANIZATION_ROLE ( 'design_owner' ) ;
#169 = APPROVAL_ROLE ( '' ) ;
#170 = CC_DESIGN_PERSON_AND_ORGANIZATION_ASSIGNMENT ( #140, #168, ( #145 ) ) ;
#171 = APPROVAL_PERSON_ORGANIZATION ( #144, #33, #55 ) ;
#172 = AXIS2_PLACEMENT_3D ( 'NONE', #57, #80, #110 ) ;
#173 = PRODUCT_DEFINITION_SHAPE ( 'NONE', 'NONE',  #30 ) ;
#174 = EDGE_CURVE ( 'NONE', #41, #79, #117, .T. ) ;
#175 = DATE_AND_TIME ( #9, #28 ) ;
ENDSEC;
END-ISO-10303-21;
