ISO-10303-21;
HEADER;
FILE_DESCRIPTION (( 'STEP AP203' ),
    '1' );
FILE_NAME ('TTN098089-E0W.STEP',
    '2019-12-09T20:52:14',
    ( '' ),
    ( '' ),
    'SwSTEP 2.0',
    'SolidWorks 2018',
    '' );
FILE_SCHEMA (( 'CONFIG_CONTROL_DESIGN' ));
ENDSEC;

DATA;
#1 = COORDINATED_UNIVERSAL_TIME_OFFSET ( 5, 0, .BEHIND. ) ;
#2 = VECTOR ( 'NONE', #30, 1000.000000000000000 ) ;
#3 = EDGE_CURVE ( 'NONE', #209, #263, #73, .T. ) ;
#4 = APPROVAL_STATUS ( 'not_yet_approved' ) ;
#5 = ORIENTED_EDGE ( 'NONE', *, *, #164, .F. ) ;
#6 = EDGE_LOOP ( 'NONE', ( #152, #123, #247 ) ) ;
#7 = EDGE_CURVE ( 'NONE', #25, #38, #100, .T. ) ;
#8 = EDGE_LOOP ( 'NONE', ( #244, #27, #203, #55 ) ) ;
#9 = EDGE_CURVE ( 'NONE', #263, #38, #276, .T. ) ;
#10 = DATE_AND_TIME ( #78, #14 ) ;
#11 = CC_DESIGN_PERSON_AND_ORGANIZATION_ASSIGNMENT ( #225, #53, ( #241 ) ) ;
#12 = DIRECTION ( 'NONE',  ( -0.0000000000000000000, -1.520927702892695022E-15, -1.000000000000000000 ) ) ;
#13 = CARTESIAN_POINT ( 'NONE',  ( 0.0000000000000000000, -4.753604894965824652E-15, 2.170000000000060769 ) ) ;
#14 = LOCAL_TIME ( 15, 52, 14.00000000000000000, #1 ) ;
#15 = ADVANCED_FACE ( 'NONE', ( #60 ), #153, .T. ) ;
#16 = AXIS2_PLACEMENT_3D ( 'NONE', #256, #70, #238 ) ;
#17 = DIRECTION ( 'NONE',  ( 0.0000000000000000000, 1.520927702892695022E-15, 1.000000000000000000 ) ) ;
#18 = PERSON_AND_ORGANIZATION ( #155, #248 ) ;
#19 = SECURITY_CLASSIFICATION ( '', '', #97 ) ;
#20 = CONICAL_SURFACE ( 'NONE', #98, 12.49999999999998401, 0.7853981633974499443 ) ;
#21 = ADVANCED_FACE ( 'NONE', ( #46 ), #193, .T. ) ;
#22 = DIRECTION ( 'NONE',  ( -0.0000000000000000000, -1.520927702892695022E-15, -1.000000000000000000 ) ) ;
#23 = EDGE_CURVE ( 'NONE', #38, #105, #267, .T. ) ;
#24 = DIRECTION ( 'NONE',  ( 0.0000000000000000000, 1.000000000000000000, 3.073328992872299326E-16 ) ) ;
#25 = VERTEX_POINT ( 'NONE', #206 ) ;
#26 = CIRCLE ( 'NONE', #226, 35.62800000000004985 ) ;
#27 = ORIENTED_EDGE ( 'NONE', *, *, #3, .F. ) ;
#28 = EDGE_CURVE ( 'NONE', #76, #148, #26, .T. ) ;
#29 = VECTOR ( 'NONE', #261, 1000.000000000000000 ) ;
#30 = DIRECTION ( 'NONE',  ( 8.659560562354947649E-17, -0.7071067811865497932, -0.7071067811865452413 ) ) ;
#31 = CARTESIAN_POINT ( 'NONE',  ( 1.543054966925663301E-15, 12.49999999999998934, -2.169999999999999485 ) ) ;
#32 = CC_DESIGN_SECURITY_CLASSIFICATION ( #19, ( #49 ) ) ;
#33 = ORIENTED_EDGE ( 'NONE', *, *, #156, .F. ) ;
#34 =( NAMED_UNIT ( * ) SI_UNIT ( $, .STERADIAN. ) SOLID_ANGLE_UNIT ( ) );
#35 = DATE_AND_TIME ( #297, #157 ) ;
#36 = CC_DESIGN_DATE_AND_TIME_ASSIGNMENT ( #35, #219, ( #241 ) ) ;
#37 = ORIENTED_EDGE ( 'NONE', *, *, #7, .T. ) ;
#38 = VERTEX_POINT ( 'NONE', #134 ) ;
#39 = LINE ( 'NONE', #149, #29 ) ;
#40 = CC_DESIGN_PERSON_AND_ORGANIZATION_ASSIGNMENT ( #196, #221, ( #49 ) ) ;
#41 = AXIS2_PLACEMENT_3D ( 'NONE', #274, #296, #215 ) ;
#42 = COORDINATED_UNIVERSAL_TIME_OFFSET ( 5, 0, .BEHIND. ) ;
#43 = CC_DESIGN_PERSON_AND_ORGANIZATION_ASSIGNMENT ( #245, #120, ( #19 ) ) ;
#44 = DIRECTION ( 'NONE',  ( 0.0000000000000000000, 0.0000000000000000000, 1.000000000000000000 ) ) ;
#45 = DIRECTION ( 'NONE',  ( -0.0000000000000000000, 3.061515884555943146E-16, -1.000000000000000000 ) ) ;
#46 = FACE_OUTER_BOUND ( 'NONE', #135, .T. ) ;
#47 = ADVANCED_FACE ( 'NONE', ( #190 ), #161, .T. ) ;
#48 = CARTESIAN_POINT ( 'NONE',  ( 0.0000000000000000000, 3.972378090529005805E-15, -33.45799999999998420 ) ) ;
#49 = PRODUCT_DEFINITION_FORMATION_WITH_SPECIFIED_SOURCE ( 'ANY', '', #182, .NOT_KNOWN. ) ;
#50 = CARTESIAN_POINT ( 'NONE',  ( 0.0000000000000000000, 4.586796046698204760E-15, -0.2947809706556365206 ) ) ;
#51 = CIRCLE ( 'NONE', #57, 12.49999999999998757 ) ;
#52 = APPLICATION_CONTEXT ( 'configuration controlled 3d designs of mechanical parts and assemblies' ) ;
#53 = PERSON_AND_ORGANIZATION_ROLE ( 'creator' ) ;
#54 = AXIS2_PLACEMENT_3D ( 'NONE', #167, #17, #211 ) ;
#55 = ORIENTED_EDGE ( 'NONE', *, *, #177, .T. ) ;
#56 = CIRCLE ( 'NONE', #285, 12.69999999999998330 ) ;
#57 = AXIS2_PLACEMENT_3D ( 'NONE', #71, #143, #298 ) ;
#58 = PERSON_AND_ORGANIZATION ( #155, #248 ) ;
#59 = APPROVAL ( #258, 'UNSPECIFIED' ) ;
#60 = FACE_OUTER_BOUND ( 'NONE', #192, .T. ) ;
#61 = DIRECTION ( 'NONE',  ( -0.0000000000000000000, -1.520927702892695022E-15, -1.000000000000000000 ) ) ;
#62 = CARTESIAN_POINT ( 'NONE',  ( 1.555301434917137052E-15, -12.69999999999998508, -1.969999999999960894 ) ) ;
#63 = DIRECTION ( 'NONE',  ( -1.000000000000000000, 0.0000000000000000000, 0.0000000000000000000 ) ) ;
#64 = DIRECTION ( 'NONE',  ( 0.0000000000000000000, 1.000000000000000000, -1.526556658859591821E-15 ) ) ;
#65 = ORIENTED_EDGE ( 'NONE', *, *, #156, .T. ) ;
#66 = PERSON_AND_ORGANIZATION ( #155, #248 ) ;
#67 = LINE ( 'NONE', #223, #2 ) ;
#68 = CARTESIAN_POINT ( 'NONE',  ( 0.0000000000000000000, 12.69999999999998863, -2.169999999999995932 ) ) ;
#69 = AXIS2_PLACEMENT_3D ( 'NONE', #162, #141, #24 ) ;
#70 = DIRECTION ( 'NONE',  ( -0.0000000000000000000, -1.520927702892695022E-15, -1.000000000000000000 ) ) ;
#71 = CARTESIAN_POINT ( 'NONE',  ( 0.0000000000000000000, 1.734723475976842593E-15, -2.169999999999980389 ) ) ;
#72 = APPLICATION_PROTOCOL_DEFINITION ( 'international standard', 'config_control_design', 1994, #52 ) ;
#73 = CIRCLE ( 'NONE', #116, 12.49999999999998757 ) ;
#74 = PERSON_AND_ORGANIZATION_ROLE ( 'design_supplier' ) ;
#75 = CARTESIAN_POINT ( 'NONE',  ( 0.0000000000000000000, 4.890981587276743449E-15, -0.09478097065563663437 ) ) ;
#76 = VERTEX_POINT ( 'NONE', #13 ) ;
#77 = CC_DESIGN_APPROVAL ( #59, ( #49 ) ) ;
#78 = CALENDAR_DATE ( 2019, 9, 12 ) ;
#79 = AXIS2_PLACEMENT_3D ( 'NONE', #75, #99, #279 ) ;
#80 = DIRECTION ( 'NONE',  ( 0.0000000000000000000, 1.000000000000000000, 3.073328992872299326E-16 ) ) ;
#81 = ORIENTED_EDGE ( 'NONE', *, *, #23, .T. ) ;
#82 = ORIENTED_EDGE ( 'NONE', *, *, #140, .T. ) ;
#83 = CIRCLE ( 'NONE', #16, 12.69999999999998685 ) ;
#84 = DIRECTION ( 'NONE',  ( 8.659560562354941486E-17, 0.7071067811865493491, 0.7071067811865456854 ) ) ;
#85 = DIRECTION ( 'NONE',  ( 0.0000000000000000000, 1.000000000000000000, 3.895191368534421812E-16 ) ) ;
#86 = ORIENTED_EDGE ( 'NONE', *, *, #295, .T. ) ;
#87 = CARTESIAN_POINT ( 'NONE',  ( 0.0000000000000000000, 1.734723475976842593E-15, -2.169999999999980389 ) ) ;
#88 = FACE_OUTER_BOUND ( 'NONE', #222, .T. ) ;
#89 = EDGE_CURVE ( 'NONE', #148, #113, #246, .T. ) ;
#90 = DIRECTION ( 'NONE',  ( 1.000000000000000000, 0.0000000000000000000, -0.0000000000000000000 ) ) ;
#91 = CARTESIAN_POINT ( 'NONE',  ( 0.0000000000000000000, 4.890981587276743449E-15, -0.09478097065563663437 ) ) ;
#92 = CARTESIAN_POINT ( 'NONE',  ( 0.0000000000000000000, 12.49999999999998934, -0.09478097065565564694 ) ) ;
#93 = ADVANCED_FACE ( 'NONE', ( #283 ), #191, .T. ) ;
#94 = VECTOR ( 'NONE', #84, 1000.000000000000000 ) ;
#95 = ADVANCED_FACE ( 'NONE', ( #257 ), #270, .T. ) ;
#96 = FACE_OUTER_BOUND ( 'NONE', #101, .T. ) ;
#97 = SECURITY_CLASSIFICATION_LEVEL ( 'unclassified' ) ;
#98 = AXIS2_PLACEMENT_3D ( 'NONE', #174, #299, #198 ) ;
#99 = DIRECTION ( 'NONE',  ( -0.0000000000000000000, -1.520927702892695022E-15, -1.000000000000000000 ) ) ;
#100 = LINE ( 'NONE', #68, #169 ) ;
#101 = EDGE_LOOP ( 'NONE', ( #145, #200, #183, #5 ) ) ;
#102 = CALENDAR_DATE ( 2019, 9, 12 ) ;
#103 = AXIS2_PLACEMENT_3D ( 'NONE', #202, #227, #106 ) ;
#104 = AXIS2_PLACEMENT_3D ( 'NONE', #91, #12, #229 ) ;
#105 = VERTEX_POINT ( 'NONE', #62 ) ;
#106 = DIRECTION ( 'NONE',  ( 0.0000000000000000000, -1.000000000000000000, 1.536664496436149663E-15 ) ) ;
#107 = ADVANCED_FACE ( 'NONE', ( #181 ), #133, .T. ) ;
#108 = DIRECTION ( 'NONE',  ( -0.0000000000000000000, -1.520927702892695022E-15, -1.000000000000000000 ) ) ;
#109 = ORIENTED_EDGE ( 'NONE', *, *, #255, .T. ) ;
#110 =( GEOMETRIC_REPRESENTATION_CONTEXT ( 3 ) GLOBAL_UNCERTAINTY_ASSIGNED_CONTEXT ( ( #240 ) ) GLOBAL_UNIT_ASSIGNED_CONTEXT ( ( #260, #115, #34 ) ) REPRESENTATION_CONTEXT ( 'NONE', 'WORKASPACE' ) );
#111 = DIRECTION ( 'NONE',  ( -0.0000000000000000000, -1.520927702892695022E-15, -1.000000000000000000 ) ) ;
#112 = CARTESIAN_POINT ( 'NONE',  ( 0.0000000000000000000, -12.69999999999998508, -1.969999999999960894 ) ) ;
#113 = VERTEX_POINT ( 'NONE', #266 ) ;
#114 = LOCAL_TIME ( 15, 52, 14.00000000000000000, #212 ) ;
#115 =( NAMED_UNIT ( * ) PLANE_ANGLE_UNIT ( ) SI_UNIT ( $, .RADIAN. ) );
#116 = AXIS2_PLACEMENT_3D ( 'NONE', #87, #61, #64 ) ;
#117 = APPROVAL_ROLE ( '' ) ;
#118 = APPROVAL_DATE_TIME ( #10, #151 ) ;
#119 = CIRCLE ( 'NONE', #79, 12.49999999999998401 ) ;
#120 = PERSON_AND_ORGANIZATION_ROLE ( 'classification_officer' ) ;
#121 = CARTESIAN_POINT ( 'NONE',  ( 0.0000000000000000000, 12.49999999999998934, -0.09478097065565564694 ) ) ;
#122 = ORIENTED_EDGE ( 'NONE', *, *, #7, .F. ) ;
#123 = ORIENTED_EDGE ( 'NONE', *, *, #220, .T. ) ;
#124 = APPROVAL_DATE_TIME ( #233, #264 ) ;
#125 = APPROVAL_PERSON_ORGANIZATION ( #291, #264, #195 ) ;
#126 = ORIENTED_EDGE ( 'NONE', *, *, #231, .F. ) ;
#127 = APPROVAL_PERSON_ORGANIZATION ( #58, #151, #242 ) ;
#128 = CIRCLE ( 'NONE', #41, 35.62800000000004985 ) ;
#129 = DIRECTION ( 'NONE',  ( -0.0000000000000000000, 3.061515884555943146E-16, -1.000000000000000000 ) ) ;
#130 = CC_DESIGN_PERSON_AND_ORGANIZATION_ASSIGNMENT ( #218, #239, ( #182 ) ) ;
#131 = CARTESIAN_POINT ( 'NONE',  ( 0.0000000000000000000, 3.972378090529005805E-15, -33.45799999999998420 ) ) ;
#132 = MANIFOLD_SOLID_BREP ( 'TTN098090-1-solid1', #194 ) ;
#133 = PLANE ( 'NONE',  #272 ) ;
#134 = CARTESIAN_POINT ( 'NONE',  ( 0.0000000000000000000, 12.69999999999998863, -1.969999999999999973 ) ) ;
#135 = EDGE_LOOP ( 'NONE', ( #139, #109, #234, #273 ) ) ;
#136 = LOCAL_TIME ( 15, 52, 14.00000000000000000, #293 ) ;
#137 = AXIS2_PLACEMENT_3D ( 'NONE', #131, #159, #85 ) ;
#138 = CIRCLE ( 'NONE', #184, 12.69999999999998330 ) ;
#139 = ORIENTED_EDGE ( 'NONE', *, *, #89, .T. ) ;
#140 = EDGE_CURVE ( 'NONE', #25, #163, #138, .T. ) ;
#141 = DIRECTION ( 'NONE',  ( -0.0000000000000000000, 3.061515884555943146E-16, -1.000000000000000000 ) ) ;
#142 = ADVANCED_BREP_SHAPE_REPRESENTATION ( 'TTN098089-E0W', ( #132, #210 ), #110 ) ;
#143 = DIRECTION ( 'NONE',  ( -0.0000000000000000000, -1.520927702892695022E-15, -1.000000000000000000 ) ) ;
#144 = CARTESIAN_POINT ( 'NONE',  ( 0.0000000000000000000, 0.0000000000000000000, 0.0000000000000000000 ) ) ;
#145 = ORIENTED_EDGE ( 'NONE', *, *, #255, .F. ) ;
#146 = APPLICATION_PROTOCOL_DEFINITION ( 'international standard', 'config_control_design', 1994, #278 ) ;
#147 = DATE_TIME_ROLE ( 'classification_date' ) ;
#148 = VERTEX_POINT ( 'NONE', #92 ) ;
#149 = CARTESIAN_POINT ( 'NONE',  ( 1.555301434917137052E-15, -12.69999999999998508, -2.170000000000003926 ) ) ;
#150 = CALENDAR_DATE ( 2019, 9, 12 ) ;
#151 = APPROVAL ( #4, 'UNSPECIFIED' ) ;
#152 = ORIENTED_EDGE ( 'NONE', *, *, #28, .F. ) ;
#153 = CYLINDRICAL_SURFACE ( 'NONE', #236, 12.69999999999998685 ) ;
#154 = FACE_OUTER_BOUND ( 'NONE', #8, .T. ) ;
#155 = PERSON ( 'UNSPECIFIED', 'UNSPECIFIED', 'UNSPECIFIED', ('UNSPECIFIED'), ('UNSPECIFIED'), ('UNSPECIFIED') ) ;
#156 = EDGE_CURVE ( 'NONE', #263, #209, #51, .T. ) ;
#157 = LOCAL_TIME ( 15, 52, 14.00000000000000000, #42 ) ;
#158 = AXIS2_PLACEMENT_3D ( 'NONE', #250, #108, #204 ) ;
#159 = DIRECTION ( 'NONE',  ( 1.000000000000000000, 0.0000000000000000000, -0.0000000000000000000 ) ) ;
#160 = DIRECTION ( 'NONE',  ( -0.0000000000000000000, -1.520927702892695022E-15, -1.000000000000000000 ) ) ;
#161 = SPHERICAL_SURFACE ( 'NONE', #289, 35.62800000000004985 ) ;
#162 = CARTESIAN_POINT ( 'NONE',  ( 0.0000000000000000000, 9.380484670279409088E-16, -2.169999999999999929 ) ) ;
#163 = VERTEX_POINT ( 'NONE', #269 ) ;
#164 = EDGE_CURVE ( 'NONE', #163, #25, #56, .T. ) ;
#165 = DIRECTION ( 'NONE',  ( 0.0000000000000000000, 1.000000000000000000, -1.519590446475748350E-15 ) ) ;
#166 = CC_DESIGN_APPROVAL ( #151, ( #19 ) ) ;
#167 = CARTESIAN_POINT ( 'NONE',  ( 0.0000000000000000000, 2.038909016555381282E-15, -1.969999999999980433 ) ) ;
#168 = ORIENTED_EDGE ( 'NONE', *, *, #9, .T. ) ;
#169 = VECTOR ( 'NONE', #45, 1000.000000000000000 ) ;
#170 = CONICAL_SURFACE ( 'NONE', #54, 12.69999999999998685, 0.7853981633974492782 ) ;
#171 = CC_DESIGN_PERSON_AND_ORGANIZATION_ASSIGNMENT ( #66, #74, ( #49 ) ) ;
#172 = DIRECTION ( 'NONE',  ( 1.000000000000000000, 0.0000000000000000000, 0.0000000000000000000 ) ) ;
#173 = EDGE_CURVE ( 'NONE', #209, #105, #252, .T. ) ;
#174 = CARTESIAN_POINT ( 'NONE',  ( 0.0000000000000000000, 4.890981587276743449E-15, -0.09478097065563663437 ) ) ;
#175 = MECHANICAL_CONTEXT ( 'NONE', #52, 'mechanical' ) ;
#176 = DIRECTION ( 'NONE',  ( 0.0000000000000000000, 0.0000000000000000000, 1.000000000000000000 ) ) ;
#177 = EDGE_CURVE ( 'NONE', #105, #38, #83, .T. ) ;
#178 = LOCAL_TIME ( 15, 52, 14.00000000000000000, #237 ) ;
#179 = SHAPE_DEFINITION_REPRESENTATION ( #286, #142 ) ;
#180 = CARTESIAN_POINT ( 'NONE',  ( 0.0000000000000000000, 2.038909016555381282E-15, -1.969999999999980433 ) ) ;
#181 = FACE_OUTER_BOUND ( 'NONE', #301, .T. ) ;
#182 = PRODUCT ( 'TTN098089-E0W', 'TTN098089-E0W', '', ( #175 ) ) ;
#183 = ORIENTED_EDGE ( 'NONE', *, *, #259, .T. ) ;
#184 = AXIS2_PLACEMENT_3D ( 'NONE', #50, #22, #165 ) ;
#185 = CALENDAR_DATE ( 2019, 9, 12 ) ;
#186 = LINE ( 'NONE', #121, #294 ) ;
#187 = PRODUCT_RELATED_PRODUCT_CATEGORY ( 'detail', '', ( #182 ) ) ;
#188 = DIRECTION ( 'NONE',  ( 0.0000000000000000000, -0.7071067811865471286, 0.7071067811865479058 ) ) ;
#189 = ORIENTED_EDGE ( 'NONE', *, *, #3, .T. ) ;
#190 = FACE_OUTER_BOUND ( 'NONE', #249, .T. ) ;
#191 = CONICAL_SURFACE ( 'NONE', #103, 12.69999999999998685, 0.7853981633974492782 ) ;
#192 = EDGE_LOOP ( 'NONE', ( #82, #86, #228, #122 ) ) ;
#193 = CONICAL_SURFACE ( 'NONE', #104, 12.49999999999998401, 0.7853981633974499443 ) ;
#194 = CLOSED_SHELL ( 'NONE', ( #95, #21, #93, #15, #214, #230, #107, #277, #47 ) ) ;
#195 = APPROVAL_ROLE ( '' ) ;
#196 = PERSON_AND_ORGANIZATION ( #155, #248 ) ;
#197 = VECTOR ( 'NONE', #188, 1000.000000000000000 ) ;
#198 = DIRECTION ( 'NONE',  ( 0.0000000000000000000, 1.000000000000000000, -1.521135647997164693E-15 ) ) ;
#199 = DATE_AND_TIME ( #185, #136 ) ;
#200 = ORIENTED_EDGE ( 'NONE', *, *, #231, .T. ) ;
#201 = DATE_AND_TIME ( #150, #114 ) ;
#202 = CARTESIAN_POINT ( 'NONE',  ( 0.0000000000000000000, 2.038909016555381282E-15, -1.969999999999980433 ) ) ;
#203 = ORIENTED_EDGE ( 'NONE', *, *, #173, .T. ) ;
#204 = DIRECTION ( 'NONE',  ( 0.0000000000000000000, 1.000000000000000000, -1.521135647997164693E-15 ) ) ;
#205 = CC_DESIGN_DATE_AND_TIME_ASSIGNMENT ( #199, #147, ( #19 ) ) ;
#206 = CARTESIAN_POINT ( 'NONE',  ( 0.0000000000000000000, 12.69999999999998863, -0.2947809706556557829 ) ) ;
#207 = CARTESIAN_POINT ( 'NONE',  ( 0.0000000000000000000, 4.586796046698204760E-15, -0.2947809706556365206 ) ) ;
#208 = ORIENTED_EDGE ( 'NONE', *, *, #220, .F. ) ;
#209 = VERTEX_POINT ( 'NONE', #216 ) ;
#210 = AXIS2_PLACEMENT_3D ( 'NONE', #144, #176, #172 ) ;
#211 = DIRECTION ( 'NONE',  ( 0.0000000000000000000, -1.000000000000000000, 1.536664496436149663E-15 ) ) ;
#212 = COORDINATED_UNIVERSAL_TIME_OFFSET ( 5, 0, .BEHIND. ) ;
#213 = DIRECTION ( 'NONE',  ( 0.0000000000000000000, 1.000000000000000000, 3.061515884555943146E-16 ) ) ;
#214 = ADVANCED_FACE ( 'NONE', ( #88 ), #262, .T. ) ;
#215 = DIRECTION ( 'NONE',  ( -1.224646799147353207E-16, 1.000000000000000000, 0.0000000000000000000 ) ) ;
#216 = CARTESIAN_POINT ( 'NONE',  ( 0.0000000000000000000, -12.49999999999998579, -2.169999999999961293 ) ) ;
#217 = ORIENTED_EDGE ( 'NONE', *, *, #173, .F. ) ;
#218 = PERSON_AND_ORGANIZATION ( #155, #248 ) ;
#219 = DATE_TIME_ROLE ( 'creation_date' ) ;
#220 = EDGE_CURVE ( 'NONE', #76, #113, #128, .T. ) ;
#221 = PERSON_AND_ORGANIZATION_ROLE ( 'creator' ) ;
#222 = EDGE_LOOP ( 'NONE', ( #282, #254, #37, #287 ) ) ;
#223 = CARTESIAN_POINT ( 'NONE',  ( 1.530808498934189549E-15, -12.49999999999997868, -0.09478097065561762180 ) ) ;
#224 = AXIS2_PLACEMENT_3D ( 'NONE', #180, #160, #290 ) ;
#225 = PERSON_AND_ORGANIZATION ( #155, #248 ) ;
#226 = AXIS2_PLACEMENT_3D ( 'NONE', #271, #63, #44 ) ;
#227 = DIRECTION ( 'NONE',  ( 0.0000000000000000000, 1.520927702892695022E-15, 1.000000000000000000 ) ) ;
#228 = ORIENTED_EDGE ( 'NONE', *, *, #23, .F. ) ;
#229 = DIRECTION ( 'NONE',  ( 0.0000000000000000000, 1.000000000000000000, -1.521135647997164693E-15 ) ) ;
#230 = ADVANCED_FACE ( 'NONE', ( #154 ), #170, .T. ) ;
#231 = EDGE_CURVE ( 'NONE', #113, #148, #119, .T. ) ;
#232 = CARTESIAN_POINT ( 'NONE',  ( 1.555301434917137052E-15, 12.69999999999998863, -1.969999999999999973 ) ) ;
#233 = DATE_AND_TIME ( #102, #178 ) ;
#234 = ORIENTED_EDGE ( 'NONE', *, *, #140, .F. ) ;
#235 = EDGE_LOOP ( 'NONE', ( #33, #168, #81, #217 ) ) ;
#236 = AXIS2_PLACEMENT_3D ( 'NONE', #284, #129, #80 ) ;
#237 = COORDINATED_UNIVERSAL_TIME_OFFSET ( 5, 0, .BEHIND. ) ;
#238 = DIRECTION ( 'NONE',  ( 0.0000000000000000000, 1.000000000000000000, -1.536664496436149663E-15 ) ) ;
#239 = PERSON_AND_ORGANIZATION_ROLE ( 'design_owner' ) ;
#240 = UNCERTAINTY_MEASURE_WITH_UNIT (LENGTH_MEASURE( 1.000000000000000082E-05 ), #260, 'distance_accuracy_value', 'NONE');
#241 = PRODUCT_DEFINITION ( 'UNKNOWN', '', #49, #243 ) ;
#242 = APPROVAL_ROLE ( '' ) ;
#243 = DESIGN_CONTEXT ( 'detailed design', #278, 'design' ) ;
#244 = ORIENTED_EDGE ( 'NONE', *, *, #9, .F. ) ;
#245 = PERSON_AND_ORGANIZATION ( #155, #248 ) ;
#246 = CIRCLE ( 'NONE', #158, 12.49999999999998401 ) ;
#247 = ORIENTED_EDGE ( 'NONE', *, *, #89, .F. ) ;
#248 = ORGANIZATION ( 'UNSPECIFIED', 'UNSPECIFIED', '' ) ;
#249 = EDGE_LOOP ( 'NONE', ( #208, #268, #126 ) ) ;
#250 = CARTESIAN_POINT ( 'NONE',  ( 0.0000000000000000000, 4.890981587276743449E-15, -0.09478097065563663437 ) ) ;
#251 = APPROVAL_DATE_TIME ( #201, #59 ) ;
#252 = LINE ( 'NONE', #112, #197 ) ;
#253 = DIRECTION ( 'NONE',  ( 0.0000000000000000000, 1.000000000000000000, -1.519590446475748350E-15 ) ) ;
#254 = ORIENTED_EDGE ( 'NONE', *, *, #164, .T. ) ;
#255 = EDGE_CURVE ( 'NONE', #113, #163, #67, .T. ) ;
#256 = CARTESIAN_POINT ( 'NONE',  ( 0.0000000000000000000, 2.038909016555381282E-15, -1.969999999999980433 ) ) ;
#257 = FACE_OUTER_BOUND ( 'NONE', #6, .T. ) ;
#258 = APPROVAL_STATUS ( 'not_yet_approved' ) ;
#259 = EDGE_CURVE ( 'NONE', #148, #25, #186, .T. ) ;
#260 =( LENGTH_UNIT ( ) NAMED_UNIT ( * ) SI_UNIT ( .MILLI., .METRE. ) );
#261 = DIRECTION ( 'NONE',  ( -0.0000000000000000000, 3.061515884555943146E-16, -1.000000000000000000 ) ) ;
#262 = CYLINDRICAL_SURFACE ( 'NONE', #69, 12.69999999999998685 ) ;
#263 = VERTEX_POINT ( 'NONE', #31 ) ;
#264 = APPROVAL ( #300, 'UNSPECIFIED' ) ;
#265 = APPROVAL_PERSON_ORGANIZATION ( #18, #59, #117 ) ;
#266 = CARTESIAN_POINT ( 'NONE',  ( 1.543054966925662906E-15, -12.49999999999997868, -0.09478097065561762180 ) ) ;
#267 = CIRCLE ( 'NONE', #224, 12.69999999999998685 ) ;
#268 = ORIENTED_EDGE ( 'NONE', *, *, #28, .T. ) ;
#269 = CARTESIAN_POINT ( 'NONE',  ( 1.555301434917136658E-15, -12.69999999999997797, -0.2947809706556172027 ) ) ;
#270 = SPHERICAL_SURFACE ( 'NONE', #137, 35.62800000000004985 ) ;
#271 = CARTESIAN_POINT ( 'NONE',  ( 0.0000000000000000000, 3.972378090529005805E-15, -33.45799999999998420 ) ) ;
#272 = AXIS2_PLACEMENT_3D ( 'NONE', #292, #275, #213 ) ;
#273 = ORIENTED_EDGE ( 'NONE', *, *, #259, .F. ) ;
#274 = CARTESIAN_POINT ( 'NONE',  ( 0.0000000000000000000, 3.972378090529005805E-15, -33.45799999999998420 ) ) ;
#275 = DIRECTION ( 'NONE',  ( -0.0000000000000000000, 3.061515884555943146E-16, -1.000000000000000000 ) ) ;
#276 = LINE ( 'NONE', #232, #94 ) ;
#277 = ADVANCED_FACE ( 'NONE', ( #96 ), #20, .T. ) ;
#278 = APPLICATION_CONTEXT ( 'configuration controlled 3d designs of mechanical parts and assemblies' ) ;
#279 = DIRECTION ( 'NONE',  ( 0.0000000000000000000, 1.000000000000000000, -1.521135647997164693E-15 ) ) ;
#280 = DIRECTION ( 'NONE',  ( 0.0000000000000000000, 0.7071067811865475727, -0.7071067811865474617 ) ) ;
#281 = CC_DESIGN_APPROVAL ( #264, ( #241 ) ) ;
#282 = ORIENTED_EDGE ( 'NONE', *, *, #295, .F. ) ;
#283 = FACE_OUTER_BOUND ( 'NONE', #235, .T. ) ;
#284 = CARTESIAN_POINT ( 'NONE',  ( 0.0000000000000000000, 9.380484670279409088E-16, -2.169999999999999929 ) ) ;
#285 = AXIS2_PLACEMENT_3D ( 'NONE', #207, #111, #253 ) ;
#286 = PRODUCT_DEFINITION_SHAPE ( 'NONE', 'NONE',  #241 ) ;
#287 = ORIENTED_EDGE ( 'NONE', *, *, #177, .F. ) ;
#288 = DIRECTION ( 'NONE',  ( 0.0000000000000000000, 1.000000000000000000, 3.895191368534421812E-16 ) ) ;
#289 = AXIS2_PLACEMENT_3D ( 'NONE', #48, #90, #288 ) ;
#290 = DIRECTION ( 'NONE',  ( 0.0000000000000000000, 1.000000000000000000, -1.536664496436149663E-15 ) ) ;
#291 = PERSON_AND_ORGANIZATION ( #155, #248 ) ;
#292 = CARTESIAN_POINT ( 'NONE',  ( 0.0000000000000000000, 9.380484670279415004E-16, -2.170000000000001705 ) ) ;
#293 = COORDINATED_UNIVERSAL_TIME_OFFSET ( 5, 0, .BEHIND. ) ;
#294 = VECTOR ( 'NONE', #280, 1000.000000000000000 ) ;
#295 = EDGE_CURVE ( 'NONE', #163, #105, #39, .T. ) ;
#296 = DIRECTION ( 'NONE',  ( 1.000000000000000000, 1.224646799147353207E-16, 3.749275628560213616E-32 ) ) ;
#297 = CALENDAR_DATE ( 2019, 9, 12 ) ;
#298 = DIRECTION ( 'NONE',  ( 0.0000000000000000000, 1.000000000000000000, -1.526556658859591821E-15 ) ) ;
#299 = DIRECTION ( 'NONE',  ( -0.0000000000000000000, -1.520927702892695022E-15, -1.000000000000000000 ) ) ;
#300 = APPROVAL_STATUS ( 'not_yet_approved' ) ;
#301 = EDGE_LOOP ( 'NONE', ( #189, #65 ) ) ;
ENDSEC;
END-ISO-10303-21;
