ISO-10303-21;
HEADER;
FILE_DESCRIPTION (( 'STEP AP203' ),
    '1' );
FILE_NAME ('Web Model 45570_84478.step',
    '2019-01-07T15:33:43',
    ( '' ),
    ( '' ),
    'SwSTEP 2.0',
    'SolidWorks 2016',
    '' );
FILE_SCHEMA (( 'CONFIG_CONTROL_DESIGN' ));
ENDSEC;

DATA;
#1 = ORIENTED_EDGE ( 'NONE', *, *, #2, .T. ) ;
#2 = EDGE_CURVE ( 'NONE', #132, #69, #136, .T. ) ;
#3 = DIRECTION ( 'NONE',  ( 0.0000000000000000000, 0.0000000000000000000, 1.000000000000000000 ) ) ;
#4 = PRODUCT ( 'Web Model 45570_84478', 'Web Model 45570_84478', '', ( #33 ) ) ;
#5 = DIRECTION ( 'NONE',  ( 1.000000000000000000, 0.0000000000000000000, 0.0000000000000000000 ) ) ;
#6 = DIRECTION ( 'NONE',  ( 0.0000000000000000000, 0.0000000000000000000, 1.000000000000000000 ) ) ;
#7 = CC_DESIGN_PERSON_AND_ORGANIZATION_ASSIGNMENT ( #75, #61, ( #58 ) ) ;
#8 = APPROVAL_DATE_TIME ( #96, #124 ) ;
#9 = ORGANIZATION ( 'UNSPECIFIED', 'UNSPECIFIED', '' ) ;
#10 = DATE_TIME_ROLE ( 'classification_date' ) ;
#11 = DATE_TIME_ROLE ( 'creation_date' ) ;
#12 = PERSON_AND_ORGANIZATION_ROLE ( 'creator' ) ;
#13 = VERTEX_POINT ( 'NONE', #116 ) ;
#14 = CC_DESIGN_PERSON_AND_ORGANIZATION_ASSIGNMENT ( #36, #12, ( #95 ) ) ;
#15 = CALENDAR_DATE ( 2019, 7, 1 ) ;
#16 = FACE_OUTER_BOUND ( 'NONE', #97, .T. ) ;
#17 = COORDINATED_UNIVERSAL_TIME_OFFSET ( 5, 0, .BEHIND. ) ;
#18 = CLOSED_SHELL ( 'NONE', ( #134, #161, #94, #23 ) ) ;
#19 = CYLINDRICAL_SURFACE ( 'NONE', #77, 20.00000000000000000 ) ;
#20 = DIRECTION ( 'NONE',  ( -1.000000000000000000, 0.0000000000000000000, 0.0000000000000000000 ) ) ;
#21 = CC_DESIGN_PERSON_AND_ORGANIZATION_ASSIGNMENT ( #125, #78, ( #58 ) ) ;
#22 = PERSON_AND_ORGANIZATION ( #87, #9 ) ;
#23 = ADVANCED_FACE ( 'NONE', ( #117 ), #84, .F. ) ;
#24 = CALENDAR_DATE ( 2019, 7, 1 ) ;
#25 = CIRCLE ( 'NONE', #37, 20.00000000000000000 ) ;
#26 = CALENDAR_DATE ( 2019, 7, 1 ) ;
#27 = PERSON_AND_ORGANIZATION ( #87, #9 ) ;
#28 = EDGE_LOOP ( 'NONE', ( #115, #129, #56, #138 ) ) ;
#29 = DIRECTION ( 'NONE',  ( 0.0000000000000000000, 0.0000000000000000000, 1.000000000000000000 ) ) ;
#30 = LOCAL_TIME ( 10, 33, 43.00000000000000000, #60 ) ;
#31 = CARTESIAN_POINT ( 'NONE',  ( 20.00000000000000000, 2.449293598294706500E-015, 2.000000000000000000 ) ) ;
#32 = APPROVAL_STATUS ( 'not_yet_approved' ) ;
#33 = MECHANICAL_CONTEXT ( 'NONE', #120, 'mechanical' ) ;
#34 = CARTESIAN_POINT ( 'NONE',  ( 0.0000000000000000000, 0.0000000000000000000, 0.0000000000000000000 ) ) ;
#35 = AXIS2_PLACEMENT_3D ( 'NONE', #86, #29, #128 ) ;
#36 = PERSON_AND_ORGANIZATION ( #87, #9 ) ;
#37 = AXIS2_PLACEMENT_3D ( 'NONE', #103, #6, #113 ) ;
#38 = CIRCLE ( 'NONE', #98, 20.00000000000000000 ) ;
#39 = CARTESIAN_POINT ( 'NONE',  ( 0.0000000000000000000, 0.0000000000000000000, -2.000000000000000000 ) ) ;
#40 = CC_DESIGN_PERSON_AND_ORGANIZATION_ASSIGNMENT ( #147, #74, ( #68 ) ) ;
#41 = DIRECTION ( 'NONE',  ( -0.0000000000000000000, -0.0000000000000000000, -1.000000000000000000 ) ) ;
#42 = APPROVAL_DATE_TIME ( #154, #108 ) ;
#43 = CARTESIAN_POINT ( 'NONE',  ( 0.0000000000000000000, 0.0000000000000000000, -2.000000000000000000 ) ) ;
#44 = ORIENTED_EDGE ( 'NONE', *, *, #174, .F. ) ;
#45 = CC_DESIGN_PERSON_AND_ORGANIZATION_ASSIGNMENT ( #82, #49, ( #4 ) ) ;
#46 = APPROVAL_STATUS ( 'not_yet_approved' ) ;
#47 = DIRECTION ( 'NONE',  ( 0.0000000000000000000, 0.0000000000000000000, 1.000000000000000000 ) ) ;
#48 = FACE_OUTER_BOUND ( 'NONE', #52, .T. ) ;
#49 = PERSON_AND_ORGANIZATION_ROLE ( 'design_owner' ) ;
#50 = LOCAL_TIME ( 10, 33, 43.00000000000000000, #55 ) ;
#51 = EDGE_LOOP ( 'NONE', ( #149, #173 ) ) ;
#52 = EDGE_LOOP ( 'NONE', ( #164, #105 ) ) ;
#53 = CARTESIAN_POINT ( 'NONE',  ( 0.0000000000000000000, 0.0000000000000000000, 2.000000000000000000 ) ) ;
#54 = DIRECTION ( 'NONE',  ( -0.0000000000000000000, -0.0000000000000000000, -1.000000000000000000 ) ) ;
#55 = COORDINATED_UNIVERSAL_TIME_OFFSET ( 5, 0, .BEHIND. ) ;
#56 = ORIENTED_EDGE ( 'NONE', *, *, #174, .T. ) ;
#57 = DIRECTION ( 'NONE',  ( 0.0000000000000000000, 0.0000000000000000000, 1.000000000000000000 ) ) ;
#58 = PRODUCT_DEFINITION_FORMATION_WITH_SPECIFIED_SOURCE ( 'ANY', '', #4, .NOT_KNOWN. ) ;
#59 = APPROVAL_ROLE ( '' ) ;
#60 = COORDINATED_UNIVERSAL_TIME_OFFSET ( 5, 0, .BEHIND. ) ;
#61 = PERSON_AND_ORGANIZATION_ROLE ( 'creator' ) ;
#62 = VECTOR ( 'NONE', #92, 1000.000000000000000 ) ;
#63 = CARTESIAN_POINT ( 'NONE',  ( 0.0000000000000000000, 0.0000000000000000000, 2.000000000000000000 ) ) ;
#64 = APPROVAL_PERSON_ORGANIZATION ( #111, #124, #91 ) ;
#65 = MANIFOLD_SOLID_BREP ( 'Boss-Extrude1', #18 ) ;
#66 = EDGE_CURVE ( 'NONE', #132, #13, #25, .T. ) ;
#67 = CC_DESIGN_APPROVAL ( #124, ( #58 ) ) ;
#68 = SECURITY_CLASSIFICATION ( '', '', #107 ) ;
#69 = VERTEX_POINT ( 'NONE', #73 ) ;
#70 = CARTESIAN_POINT ( 'NONE',  ( 20.00000000000000000, 2.449293598294706500E-015, 2.000000000000000000 ) ) ;
#71 = CARTESIAN_POINT ( 'NONE',  ( 0.0000000000000000000, 0.0000000000000000000, -2.000000000000000000 ) ) ;
#72 = DIRECTION ( 'NONE',  ( -1.000000000000000000, 0.0000000000000000000, 0.0000000000000000000 ) ) ;
#73 = CARTESIAN_POINT ( 'NONE',  ( 20.00000000000000000, 2.449293598294706500E-015, -2.000000000000000000 ) ) ;
#74 = PERSON_AND_ORGANIZATION_ROLE ( 'classification_officer' ) ;
#75 = PERSON_AND_ORGANIZATION ( #87, #9 ) ;
#76 = DIRECTION ( 'NONE',  ( 1.000000000000000000, 0.0000000000000000000, 0.0000000000000000000 ) ) ;
#77 = AXIS2_PLACEMENT_3D ( 'NONE', #139, #169, #20 ) ;
#78 = PERSON_AND_ORGANIZATION_ROLE ( 'design_supplier' ) ;
#79 = CC_DESIGN_DATE_AND_TIME_ASSIGNMENT ( #151, #10, ( #68 ) ) ;
#80 = FACE_OUTER_BOUND ( 'NONE', #28, .T. ) ;
#81 = AXIS2_PLACEMENT_3D ( 'NONE', #43, #3, #146 ) ;
#82 = PERSON_AND_ORGANIZATION ( #87, #9 ) ;
#83 = AXIS2_PLACEMENT_3D ( 'NONE', #34, #47, #158 ) ;
#84 = PLANE ( 'NONE',  #81 ) ;
#85 = SHAPE_DEFINITION_REPRESENTATION ( #109, #142 ) ;
#86 = CARTESIAN_POINT ( 'NONE',  ( 0.0000000000000000000, 0.0000000000000000000, 2.000000000000000000 ) ) ;
#87 = PERSON ( 'UNSPECIFIED', 'UNSPECIFIED', 'UNSPECIFIED', ('UNSPECIFIED'), ('UNSPECIFIED'), ('UNSPECIFIED') ) ;
#88 = LOCAL_TIME ( 10, 33, 43.00000000000000000, #104 ) ;
#89 = ORIENTED_EDGE ( 'NONE', *, *, #118, .T. ) ;
#90 = AXIS2_PLACEMENT_3D ( 'NONE', #53, #54, #72 ) ;
#91 = APPROVAL_ROLE ( '' ) ;
#92 = DIRECTION ( 'NONE',  ( -0.0000000000000000000, -0.0000000000000000000, -1.000000000000000000 ) ) ;
#93 = VERTEX_POINT ( 'NONE', #145 ) ;
#94 = ADVANCED_FACE ( 'NONE', ( #48 ), #144, .T. ) ;
#95 = PRODUCT_DEFINITION ( 'UNKNOWN', '', #58, #123 ) ;
#96 = DATE_AND_TIME ( #24, #30 ) ;
#97 = EDGE_LOOP ( 'NONE', ( #170, #1, #89, #44 ) ) ;
#98 = AXIS2_PLACEMENT_3D ( 'NONE', #63, #160, #76 ) ;
#99 = DATE_AND_TIME ( #15, #175 ) ;
#100 = AXIS2_PLACEMENT_3D ( 'NONE', #71, #155, #5 ) ;
#101 = APPROVAL_PERSON_ORGANIZATION ( #22, #106, #59 ) ;
#102 = VECTOR ( 'NONE', #41, 1000.000000000000000 ) ;
#103 = CARTESIAN_POINT ( 'NONE',  ( 0.0000000000000000000, 0.0000000000000000000, 2.000000000000000000 ) ) ;
#104 = COORDINATED_UNIVERSAL_TIME_OFFSET ( 5, 0, .BEHIND. ) ;
#105 = ORIENTED_EDGE ( 'NONE', *, *, #66, .T. ) ;
#106 = APPROVAL ( #32, 'UNSPECIFIED' ) ;
#107 = SECURITY_CLASSIFICATION_LEVEL ( 'unclassified' ) ;
#108 = APPROVAL ( #171, 'UNSPECIFIED' ) ;
#109 = PRODUCT_DEFINITION_SHAPE ( 'NONE', 'NONE',  #95 ) ;
#110 = UNCERTAINTY_MEASURE_WITH_UNIT (LENGTH_MEASURE( 1.000000000000000100E-005 ), #172, 'distance_accuracy_value', 'NONE');
#111 = PERSON_AND_ORGANIZATION ( #87, #9 ) ;
#112 = CC_DESIGN_APPROVAL ( #106, ( #95 ) ) ;
#113 = DIRECTION ( 'NONE',  ( 1.000000000000000000, 0.0000000000000000000, 0.0000000000000000000 ) ) ;
#114 = CC_DESIGN_APPROVAL ( #108, ( #68 ) ) ;
#115 = ORIENTED_EDGE ( 'NONE', *, *, #2, .F. ) ;
#116 = CARTESIAN_POINT ( 'NONE',  ( -20.00000000000000000, 0.0000000000000000000, 2.000000000000000000 ) ) ;
#117 = FACE_OUTER_BOUND ( 'NONE', #51, .T. ) ;
#118 = EDGE_CURVE ( 'NONE', #69, #93, #127, .T. ) ;
#119 =( NAMED_UNIT ( * ) SI_UNIT ( $, .STERADIAN. ) SOLID_ANGLE_UNIT ( ) );
#120 = APPLICATION_CONTEXT ( 'configuration controlled 3d designs of mechanical parts and assemblies' ) ;
#121 = CYLINDRICAL_SURFACE ( 'NONE', #90, 20.00000000000000000 ) ;
#122 = APPLICATION_CONTEXT ( 'configuration controlled 3d designs of mechanical parts and assemblies' ) ;
#123 = DESIGN_CONTEXT ( 'detailed design', #122, 'design' ) ;
#124 = APPROVAL ( #46, 'UNSPECIFIED' ) ;
#125 = PERSON_AND_ORGANIZATION ( #87, #9 ) ;
#126 = AXIS2_PLACEMENT_3D ( 'NONE', #39, #57, #141 ) ;
#127 = CIRCLE ( 'NONE', #126, 20.00000000000000000 ) ;
#128 = DIRECTION ( 'NONE',  ( 1.000000000000000000, 0.0000000000000000000, -0.0000000000000000000 ) ) ;
#129 = ORIENTED_EDGE ( 'NONE', *, *, #162, .F. ) ;
#130 = CARTESIAN_POINT ( 'NONE',  ( -20.00000000000000000, 0.0000000000000000000, 2.000000000000000000 ) ) ;
#131 = LOCAL_TIME ( 10, 33, 43.00000000000000000, #17 ) ;
#132 = VERTEX_POINT ( 'NONE', #70 ) ;
#133 = CALENDAR_DATE ( 2019, 7, 1 ) ;
#134 = ADVANCED_FACE ( 'NONE', ( #16 ), #19, .T. ) ;
#135 =( GEOMETRIC_REPRESENTATION_CONTEXT ( 3 ) GLOBAL_UNCERTAINTY_ASSIGNED_CONTEXT ( ( #110 ) ) GLOBAL_UNIT_ASSIGNED_CONTEXT ( ( #172, #150, #119 ) ) REPRESENTATION_CONTEXT ( 'NONE', 'WORKASPACE' ) );
#136 = LINE ( 'NONE', #31, #102 ) ;
#137 = CC_DESIGN_SECURITY_CLASSIFICATION ( #68, ( #58 ) ) ;
#138 = ORIENTED_EDGE ( 'NONE', *, *, #153, .T. ) ;
#139 = CARTESIAN_POINT ( 'NONE',  ( 0.0000000000000000000, 0.0000000000000000000, 2.000000000000000000 ) ) ;
#140 = PRODUCT_RELATED_PRODUCT_CATEGORY ( 'detail', '', ( #4 ) ) ;
#141 = DIRECTION ( 'NONE',  ( 1.000000000000000000, 0.0000000000000000000, 0.0000000000000000000 ) ) ;
#142 = ADVANCED_BREP_SHAPE_REPRESENTATION ( 'Web Model 45570_84478', ( #65, #83 ), #135 ) ;
#143 = CALENDAR_DATE ( 2019, 7, 1 ) ;
#144 = PLANE ( 'NONE',  #35 ) ;
#145 = CARTESIAN_POINT ( 'NONE',  ( -20.00000000000000000, 0.0000000000000000000, -2.000000000000000000 ) ) ;
#146 = DIRECTION ( 'NONE',  ( 1.000000000000000000, 0.0000000000000000000, -0.0000000000000000000 ) ) ;
#147 = PERSON_AND_ORGANIZATION ( #87, #9 ) ;
#148 = APPLICATION_PROTOCOL_DEFINITION ( 'international standard', 'config_control_design', 1994, #120 ) ;
#149 = ORIENTED_EDGE ( 'NONE', *, *, #153, .F. ) ;
#150 =( NAMED_UNIT ( * ) PLANE_ANGLE_UNIT ( ) SI_UNIT ( $, .RADIAN. ) );
#151 = DATE_AND_TIME ( #26, #88 ) ;
#152 = DATE_AND_TIME ( #143, #131 ) ;
#153 = EDGE_CURVE ( 'NONE', #93, #69, #167, .T. ) ;
#154 = DATE_AND_TIME ( #133, #50 ) ;
#155 = DIRECTION ( 'NONE',  ( 0.0000000000000000000, 0.0000000000000000000, 1.000000000000000000 ) ) ;
#156 = LINE ( 'NONE', #130, #62 ) ;
#157 = APPROVAL_ROLE ( '' ) ;
#158 = DIRECTION ( 'NONE',  ( 1.000000000000000000, 0.0000000000000000000, 0.0000000000000000000 ) ) ;
#159 = APPLICATION_PROTOCOL_DEFINITION ( 'international standard', 'config_control_design', 1994, #122 ) ;
#160 = DIRECTION ( 'NONE',  ( 0.0000000000000000000, 0.0000000000000000000, 1.000000000000000000 ) ) ;
#161 = ADVANCED_FACE ( 'NONE', ( #80 ), #121, .T. ) ;
#162 = EDGE_CURVE ( 'NONE', #13, #132, #38, .T. ) ;
#163 = APPROVAL_DATE_TIME ( #99, #106 ) ;
#164 = ORIENTED_EDGE ( 'NONE', *, *, #162, .T. ) ;
#165 = CC_DESIGN_DATE_AND_TIME_ASSIGNMENT ( #152, #11, ( #95 ) ) ;
#166 = COORDINATED_UNIVERSAL_TIME_OFFSET ( 5, 0, .BEHIND. ) ;
#167 = CIRCLE ( 'NONE', #100, 20.00000000000000000 ) ;
#168 = APPROVAL_PERSON_ORGANIZATION ( #27, #108, #157 ) ;
#169 = DIRECTION ( 'NONE',  ( -0.0000000000000000000, -0.0000000000000000000, -1.000000000000000000 ) ) ;
#170 = ORIENTED_EDGE ( 'NONE', *, *, #66, .F. ) ;
#171 = APPROVAL_STATUS ( 'not_yet_approved' ) ;
#172 =( LENGTH_UNIT ( ) NAMED_UNIT ( * ) SI_UNIT ( .MILLI., .METRE. ) );
#173 = ORIENTED_EDGE ( 'NONE', *, *, #118, .F. ) ;
#174 = EDGE_CURVE ( 'NONE', #13, #93, #156, .T. ) ;
#175 = LOCAL_TIME ( 10, 33, 43.00000000000000000, #166 ) ;
ENDSEC;
END-ISO-10303-21;
