ISO-10303-21;
HEADER;
FILE_DESCRIPTION (( 'STEP AP203' ),
    '1' );
FILE_NAME ('TTN162593-E0W.STEP',
    '2019-10-24T13:59:25',
    ( '' ),
    ( '' ),
    'SwSTEP 2.0',
    'SolidWorks 2018',
    '' );
FILE_SCHEMA (( 'CONFIG_CONTROL_DESIGN' ));
ENDSEC;

DATA;
#1 = ADVANCED_FACE ( 'NONE', ( #221 ), #190, .T. ) ;
#2 = DIRECTION ( 'NONE',  ( -0.0000000000000000000, 1.224646799147352714E-16, -1.000000000000000000 ) ) ;
#3 = DIRECTION ( 'NONE',  ( 0.0000000000000000000, -1.000000000000000000, -2.282530889443168994E-16 ) ) ;
#4 = EDGE_LOOP ( 'NONE', ( #30, #144, #172 ) ) ;
#5 = DIRECTION ( 'NONE',  ( -0.0000000000000000000, 1.224646799147352714E-16, -1.000000000000000000 ) ) ;
#6 = CARTESIAN_POINT ( 'NONE',  ( 0.5253791968664979217, 0.9514914325194480105, 1.214529559210723697 ) ) ;
#7 = APPROVAL_PERSON_ORGANIZATION ( #28, #240, #266 ) ;
#8 = ORIENTED_EDGE ( 'NONE', *, *, #278, .F. ) ;
#9 = APPROVAL ( #248, 'UNSPECIFIED' ) ;
#10 = ORIENTED_EDGE ( 'NONE', *, *, #71, .T. ) ;
#11 = PRODUCT_DEFINITION_SHAPE ( 'NONE', 'NONE',  #290 ) ;
#12 = AXIS2_PLACEMENT_3D ( 'NONE', #95, #169, #145 ) ;
#13 = EDGE_CURVE ( 'NONE', #86, #261, #264, .T. ) ;
#14 = PERSON_AND_ORGANIZATION_ROLE ( 'design_owner' ) ;
#15 = EDGE_LOOP ( 'NONE', ( #8, #49, #119, #225 ) ) ;
#16 = ADVANCED_FACE ( 'NONE', ( #22 ), #34, .T. ) ;
#17 = CARTESIAN_POINT ( 'NONE',  ( 0.5253791968664979217, 0.9514914325194480105, 1.264529559210724408 ) ) ;
#18 = ORIENTED_EDGE ( 'NONE', *, *, #220, .F. ) ;
#19 = CIRCLE ( 'NONE', #127, 1.000000000000000000 ) ;
#20 = DIRECTION ( 'NONE',  ( 1.000000000000000000, 0.0000000000000000000, -0.0000000000000000000 ) ) ;
#21 = CARTESIAN_POINT ( 'NONE',  ( 0.5253791968664980327, -0.04850856748055207973, 1.933282538235951531 ) ) ;
#22 = FACE_OUTER_BOUND ( 'NONE', #255, .T. ) ;
#23 = DIRECTION ( 'NONE',  ( 0.0000000000000000000, 1.000000000000000000, 2.168404344971008868E-16 ) ) ;
#24 = ORIENTED_EDGE ( 'NONE', *, *, #54, .T. ) ;
#25 = CC_DESIGN_PERSON_AND_ORGANIZATION_ASSIGNMENT ( #122, #136, ( #150 ) ) ;
#26 = ADVANCED_FACE ( 'NONE', ( #104 ), #274, .T. ) ;
#27 = VERTEX_POINT ( 'NONE', #166 ) ;
#28 = PERSON_AND_ORGANIZATION ( #268, #203 ) ;
#29 = COORDINATED_UNIVERSAL_TIME_OFFSET ( 5, 0, .BEHIND. ) ;
#30 = ORIENTED_EDGE ( 'NONE', *, *, #31, .F. ) ;
#31 = EDGE_CURVE ( 'NONE', #241, #86, #90, .T. ) ;
#32 = FACE_OUTER_BOUND ( 'NONE', #179, .T. ) ;
#33 = AXIS2_PLACEMENT_3D ( 'NONE', #283, #256, #23 ) ;
#34 = CONICAL_SURFACE ( 'NONE', #48, 0.9499999999999992895, 0.7853981633974503884 ) ;
#35 = APPROVAL_DATE_TIME ( #99, #9 ) ;
#36 = SECURITY_CLASSIFICATION_LEVEL ( 'unclassified' ) ;
#37 = EDGE_CURVE ( 'NONE', #148, #86, #214, .T. ) ;
#38 = DIRECTION ( 'NONE',  ( 0.0000000000000000000, 0.0000000000000000000, 1.000000000000000000 ) ) ;
#39 = VERTEX_POINT ( 'NONE', #65 ) ;
#40 = CYLINDRICAL_SURFACE ( 'NONE', #61, 1.000000000000000000 ) ;
#41 = DIRECTION ( 'NONE',  ( 8.659560562354924230E-17, -0.7071067811865466846, -0.7071067811865483499 ) ) ;
#42 = VECTOR ( 'NONE', #231, 1000.000000000000114 ) ;
#43 = CC_DESIGN_DATE_AND_TIME_ASSIGNMENT ( #163, #224, ( #152 ) ) ;
#44 = CONICAL_SURFACE ( 'NONE', #109, 1.000000000000000000, 0.7853981633974472798 ) ;
#45 = PERSON_AND_ORGANIZATION ( #268, #203 ) ;
#46 = EDGE_CURVE ( 'NONE', #39, #27, #287, .T. ) ;
#47 = CC_DESIGN_APPROVAL ( #240, ( #290 ) ) ;
#48 = AXIS2_PLACEMENT_3D ( 'NONE', #67, #164, #117 ) ;
#49 = ORIENTED_EDGE ( 'NONE', *, *, #84, .T. ) ;
#50 = ORIENTED_EDGE ( 'NONE', *, *, #69, .T. ) ;
#51 = DATE_AND_TIME ( #140, #294 ) ;
#52 = DIRECTION ( 'NONE',  ( -0.0000000000000000000, 1.224646799147352714E-16, -1.000000000000000000 ) ) ;
#53 = APPROVAL ( #161, 'UNSPECIFIED' ) ;
#54 = EDGE_CURVE ( 'NONE', #289, #62, #151, .T. ) ;
#55 = APPROVAL_ROLE ( '' ) ;
#56 = ORIENTED_EDGE ( 'NONE', *, *, #54, .F. ) ;
#57 = DATE_TIME_ROLE ( 'creation_date' ) ;
#58 = DIRECTION ( 'NONE',  ( 1.000000000000000000, 0.0000000000000000000, 0.0000000000000000000 ) ) ;
#59 = DIRECTION ( 'NONE',  ( 1.000000000000000000, 1.224646799147353207E-16, 1.499759782661857060E-32 ) ) ;
#60 = DIRECTION ( 'NONE',  ( -0.0000000000000000000, 1.224646799147352714E-16, -1.000000000000000000 ) ) ;
#61 = AXIS2_PLACEMENT_3D ( 'NONE', #146, #238, #209 ) ;
#62 = VERTEX_POINT ( 'NONE', #228 ) ;
#63 = EDGE_CURVE ( 'NONE', #39, #261, #206, .T. ) ;
#64 = CARTESIAN_POINT ( 'NONE',  ( 0.5253791968664979217, 1.951491432519448121, 1.214529559210723919 ) ) ;
#65 = CARTESIAN_POINT ( 'NONE',  ( 0.5253791968664979217, 1.951491432519447899, 1.933282538235951975 ) ) ;
#66 = ADVANCED_FACE ( 'NONE', ( #212 ), #44, .T. ) ;
#67 = CARTESIAN_POINT ( 'NONE',  ( 0.5253791968664979217, 0.9514914325194480105, 1.214529559210723697 ) ) ;
#68 = DIRECTION ( 'NONE',  ( 0.0000000000000000000, 1.000000000000000000, 2.282530889443168994E-16 ) ) ;
#69 = EDGE_CURVE ( 'NONE', #148, #39, #167, .T. ) ;
#70 = FACE_OUTER_BOUND ( 'NONE', #280, .T. ) ;
#71 = EDGE_CURVE ( 'NONE', #193, #27, #250, .T. ) ;
#72 = ADVANCED_FACE ( 'NONE', ( #70 ), #176, .T. ) ;
#73 = ORIENTED_EDGE ( 'NONE', *, *, #63, .F. ) ;
#74 = AXIS2_PLACEMENT_3D ( 'NONE', #296, #52, #131 ) ;
#75 = EDGE_CURVE ( 'NONE', #193, #289, #174, .T. ) ;
#76 = ORIENTED_EDGE ( 'NONE', *, *, #92, .T. ) ;
#77 = DATE_AND_TIME ( #207, #149 ) ;
#78 = ADVANCED_FACE ( 'NONE', ( #111 ), #40, .T. ) ;
#79 = AXIS2_PLACEMENT_3D ( 'NONE', #142, #273, #301 ) ;
#80 = VECTOR ( 'NONE', #254, 1000.000000000000000 ) ;
#81 = CARTESIAN_POINT ( 'NONE',  ( 0.5253791968664979217, 0.001491432519448807753, 1.214529559210723475 ) ) ;
#82 = COORDINATED_UNIVERSAL_TIME_OFFSET ( 5, 0, .BEHIND. ) ;
#83 = APPROVAL_ROLE ( '' ) ;
#84 = EDGE_CURVE ( 'NONE', #261, #39, #198, .T. ) ;
#85 = DIRECTION ( 'NONE',  ( 0.0000000000000000000, 1.000000000000000000, 1.180191044069852345E-16 ) ) ;
#86 = VERTEX_POINT ( 'NONE', #237 ) ;
#87 = VECTOR ( 'NONE', #180, 1000.000000000000000 ) ;
#88 = DIRECTION ( 'NONE',  ( -0.0000000000000000000, 1.224646799147352714E-16, -1.000000000000000000 ) ) ;
#89 = DIRECTION ( 'NONE',  ( 0.0000000000000000000, 1.000000000000000000, 1.180191044069852345E-16 ) ) ;
#90 = CIRCLE ( 'NONE', #100, 2.067000000000000171 ) ;
#91 = VECTOR ( 'NONE', #277, 1000.000000000000000 ) ;
#92 = EDGE_CURVE ( 'NONE', #86, #148, #281, .T. ) ;
#93 = CALENDAR_DATE ( 2019, 24, 10 ) ;
#94 = CC_DESIGN_DATE_AND_TIME_ASSIGNMENT ( #51, #57, ( #290 ) ) ;
#95 = CARTESIAN_POINT ( 'NONE',  ( 0.5253791968664979217, 0.9514914325194478995, 1.983282538235951797 ) ) ;
#96 = ORIENTED_EDGE ( 'NONE', *, *, #69, .F. ) ;
#97 = EDGE_CURVE ( 'NONE', #241, #148, #102, .T. ) ;
#98 = VECTOR ( 'NONE', #41, 1000.000000000000000 ) ;
#99 = DATE_AND_TIME ( #168, #300 ) ;
#100 = AXIS2_PLACEMENT_3D ( 'NONE', #201, #59, #251 ) ;
#101 = ORIENTED_EDGE ( 'NONE', *, *, #13, .F. ) ;
#102 = CIRCLE ( 'NONE', #107, 2.067000000000000171 ) ;
#103 = DATE_AND_TIME ( #93, #208 ) ;
#104 = FACE_OUTER_BOUND ( 'NONE', #249, .T. ) ;
#105 = LINE ( 'NONE', #159, #87 ) ;
#106 = DIRECTION ( 'NONE',  ( -0.0000000000000000000, 1.224646799147352714E-16, -1.000000000000000000 ) ) ;
#107 = AXIS2_PLACEMENT_3D ( 'NONE', #257, #121, #173 ) ;
#108 = PERSON_AND_ORGANIZATION_ROLE ( 'creator' ) ;
#109 = AXIS2_PLACEMENT_3D ( 'NONE', #137, #88, #185 ) ;
#110 = ORIENTED_EDGE ( 'NONE', *, *, #75, .F. ) ;
#111 = FACE_OUTER_BOUND ( 'NONE', #15, .T. ) ;
#112 = APPROVAL_DATE_TIME ( #103, #53 ) ;
#113 = DIRECTION ( 'NONE',  ( 0.0000000000000000000, -1.224646799147352714E-16, 1.000000000000000000 ) ) ;
#114 = AXIS2_PLACEMENT_3D ( 'NONE', #170, #234, #192 ) ;
#115 = CLOSED_SHELL ( 'NONE', ( #16, #178, #26, #72, #291, #78, #66, #1, #126 ) ) ;
#116 = CIRCLE ( 'NONE', #217, 0.9499999999999992895 ) ;
#117 = DIRECTION ( 'NONE',  ( 0.0000000000000000000, -1.000000000000000000, -2.282530889443168994E-16 ) ) ;
#118 = DIRECTION ( 'NONE',  ( 0.0000000000000000000, -1.224646799147352714E-16, 1.000000000000000000 ) ) ;
#119 = ORIENTED_EDGE ( 'NONE', *, *, #46, .T. ) ;
#120 = AXIS2_PLACEMENT_3D ( 'NONE', #141, #20, #89 ) ;
#121 = DIRECTION ( 'NONE',  ( -1.000000000000000000, 0.0000000000000000000, 0.0000000000000000000 ) ) ;
#122 = PERSON_AND_ORGANIZATION ( #268, #203 ) ;
#123 = CARTESIAN_POINT ( 'NONE',  ( 0.5253791968664980327, 1.901491432519447189, 1.214529559210723919 ) ) ;
#124 = ORIENTED_EDGE ( 'NONE', *, *, #46, .F. ) ;
#125 = COORDINATED_UNIVERSAL_TIME_OFFSET ( 5, 0, .BEHIND. ) ;
#126 = ADVANCED_FACE ( 'NONE', ( #218 ), #270, .T. ) ;
#127 = AXIS2_PLACEMENT_3D ( 'NONE', #17, #113, #184 ) ;
#128 = ADVANCED_BREP_SHAPE_REPRESENTATION ( 'TTN162593-E0W', ( #282, #229 ), #160 ) ;
#129 = ORIENTED_EDGE ( 'NONE', *, *, #278, .T. ) ;
#130 = CC_DESIGN_PERSON_AND_ORGANIZATION_ASSIGNMENT ( #275, #244, ( #290 ) ) ;
#131 = DIRECTION ( 'NONE',  ( 0.0000000000000000000, 1.000000000000000000, 1.224646799147352714E-16 ) ) ;
#132 = CARTESIAN_POINT ( 'NONE',  ( 0.5253791968664980327, 1.901491432519447189, 1.214529559210723919 ) ) ;
#133 = DIRECTION ( 'NONE',  ( 0.0000000000000000000, -1.224646799147352714E-16, 1.000000000000000000 ) ) ;
#134 = DIRECTION ( 'NONE',  ( 1.000000000000000000, 0.0000000000000000000, -0.0000000000000000000 ) ) ;
#135 = AXIS2_PLACEMENT_3D ( 'NONE', #188, #2, #253 ) ;
#136 = PERSON_AND_ORGANIZATION_ROLE ( 'design_supplier' ) ;
#137 = CARTESIAN_POINT ( 'NONE',  ( 0.5253791968664979217, 0.9514914325194478995, 1.933282538235951753 ) ) ;
#138 = AXIS2_PLACEMENT_3D ( 'NONE', #222, #134, #85 ) ;
#139 = EDGE_LOOP ( 'NONE', ( #202, #232, #292 ) ) ;
#140 = CALENDAR_DATE ( 2019, 24, 10 ) ;
#141 = CARTESIAN_POINT ( 'NONE',  ( 0.5253791968664979217, 0.9514914325194480105, 0.1475295592107234988 ) ) ;
#142 = CARTESIAN_POINT ( 'NONE',  ( 0.5253791968664979217, 0.9514914325194478995, 1.933282538235951753 ) ) ;
#143 = CC_DESIGN_SECURITY_CLASSIFICATION ( #152, ( #150 ) ) ;
#144 = ORIENTED_EDGE ( 'NONE', *, *, #97, .T. ) ;
#145 = DIRECTION ( 'NONE',  ( 0.0000000000000000000, 1.000000000000000000, 0.0000000000000000000 ) ) ;
#146 = CARTESIAN_POINT ( 'NONE',  ( 0.5253791968664979217, 0.9514914325194480105, 1.214529559210723697 ) ) ;
#147 = UNCERTAINTY_MEASURE_WITH_UNIT (LENGTH_MEASURE( 1.000000000000000082E-05 ), #157, 'distance_accuracy_value', 'NONE');
#148 = VERTEX_POINT ( 'NONE', #263 ) ;
#149 = LOCAL_TIME ( 9, 59, 25.00000000000000000, #82 ) ;
#150 = PRODUCT_DEFINITION_FORMATION_WITH_SPECIFIED_SOURCE ( 'ANY', '', #245, .NOT_KNOWN. ) ;
#151 = LINE ( 'NONE', #271, #42 ) ;
#152 = SECURITY_CLASSIFICATION ( '', '', #36 ) ;
#153 = FACE_OUTER_BOUND ( 'NONE', #139, .T. ) ;
#154 = PERSON_AND_ORGANIZATION ( #268, #203 ) ;
#155 = MECHANICAL_CONTEXT ( 'NONE', #182, 'mechanical' ) ;
#156 = ORIENTED_EDGE ( 'NONE', *, *, #37, .T. ) ;
#157 =( LENGTH_UNIT ( ) NAMED_UNIT ( * ) SI_UNIT ( .MILLI., .METRE. ) );
#158 = APPLICATION_PROTOCOL_DEFINITION ( 'international standard', 'config_control_design', 1994, #182 ) ;
#159 = CARTESIAN_POINT ( 'NONE',  ( 0.5253791968664980327, -0.04850856748055197565, 1.214529559210723475 ) ) ;
#160 =( GEOMETRIC_REPRESENTATION_CONTEXT ( 3 ) GLOBAL_UNCERTAINTY_ASSIGNED_CONTEXT ( ( #147 ) ) GLOBAL_UNIT_ASSIGNED_CONTEXT ( ( #157, #199, #298 ) ) REPRESENTATION_CONTEXT ( 'NONE', 'WORKASPACE' ) );
#161 = APPROVAL_STATUS ( 'not_yet_approved' ) ;
#162 = ORIENTED_EDGE ( 'NONE', *, *, #13, .T. ) ;
#163 = DATE_AND_TIME ( #267, #191 ) ;
#164 = DIRECTION ( 'NONE',  ( 0.0000000000000000000, -1.224646799147352714E-16, 1.000000000000000000 ) ) ;
#165 = CC_DESIGN_APPROVAL ( #9, ( #150 ) ) ;
#166 = CARTESIAN_POINT ( 'NONE',  ( 0.5253791968664979217, 1.951491432519448121, 1.264529559210724408 ) ) ;
#167 = LINE ( 'NONE', #210, #226 ) ;
#168 = CALENDAR_DATE ( 2019, 24, 10 ) ;
#169 = DIRECTION ( 'NONE',  ( -0.0000000000000000000, 1.224646799147352714E-16, -1.000000000000000000 ) ) ;
#170 = CARTESIAN_POINT ( 'NONE',  ( 0.5253791968664979217, 0.9514914325194480105, 1.214529559210723697 ) ) ;
#171 = AXIS2_PLACEMENT_3D ( 'NONE', #204, #60, #230 ) ;
#172 = ORIENTED_EDGE ( 'NONE', *, *, #92, .F. ) ;
#173 = DIRECTION ( 'NONE',  ( 0.0000000000000000000, 0.0000000000000000000, 1.000000000000000000 ) ) ;
#174 = CIRCLE ( 'NONE', #205, 0.9499999999999992895 ) ;
#175 = ORIENTED_EDGE ( 'NONE', *, *, #260, .T. ) ;
#176 = CYLINDRICAL_SURFACE ( 'NONE', #114, 1.000000000000000000 ) ;
#177 = CC_DESIGN_PERSON_AND_ORGANIZATION_ASSIGNMENT ( #284, #293, ( #152 ) ) ;
#178 = ADVANCED_FACE ( 'NONE', ( #153 ), #265, .T. ) ;
#179 = EDGE_LOOP ( 'NONE', ( #183, #186 ) ) ;
#180 = DIRECTION ( 'NONE',  ( -0.0000000000000000000, 1.224646799147352714E-16, -1.000000000000000000 ) ) ;
#181 = APPLICATION_CONTEXT ( 'configuration controlled 3d designs of mechanical parts and assemblies' ) ;
#182 = APPLICATION_CONTEXT ( 'configuration controlled 3d designs of mechanical parts and assemblies' ) ;
#183 = ORIENTED_EDGE ( 'NONE', *, *, #220, .T. ) ;
#184 = DIRECTION ( 'NONE',  ( 0.0000000000000000000, 1.000000000000000000, 2.168404344971008868E-16 ) ) ;
#185 = DIRECTION ( 'NONE',  ( 0.0000000000000000000, 1.000000000000000000, 2.168404344971008868E-16 ) ) ;
#186 = ORIENTED_EDGE ( 'NONE', *, *, #75, .T. ) ;
#187 = PERSON_AND_ORGANIZATION ( #268, #203 ) ;
#188 = CARTESIAN_POINT ( 'NONE',  ( 0.5253791968664979217, 0.9514914325194478995, 1.983282538235951797 ) ) ;
#189 = CARTESIAN_POINT ( 'NONE',  ( 0.5253791968664980327, -0.04850856748055207973, 1.933282538235951531 ) ) ;
#190 = SPHERICAL_SURFACE ( 'NONE', #120, 2.067000000000000171 ) ;
#191 = LOCAL_TIME ( 9, 59, 25.00000000000000000, #29 ) ;
#192 = DIRECTION ( 'NONE',  ( 0.0000000000000000000, 1.000000000000000000, 2.168404344971008868E-16 ) ) ;
#193 = VERTEX_POINT ( 'NONE', #132 ) ;
#194 = ORIENTED_EDGE ( 'NONE', *, *, #71, .F. ) ;
#195 = APPROVAL_DATE_TIME ( #77, #240 ) ;
#196 = DIRECTION ( 'NONE',  ( 0.0000000000000000000, 1.000000000000000000, 2.282530889443168994E-16 ) ) ;
#197 = PLANE ( 'NONE',  #74 ) ;
#198 = CIRCLE ( 'NONE', #33, 1.000000000000000000 ) ;
#199 =( NAMED_UNIT ( * ) PLANE_ANGLE_UNIT ( ) SI_UNIT ( $, .RADIAN. ) );
#200 = CARTESIAN_POINT ( 'NONE',  ( 0.5253791968664979217, 0.9514914325194478995, 2.214529559210723697 ) ) ;
#201 = CARTESIAN_POINT ( 'NONE',  ( 0.5253791968664979217, 0.9514914325194480105, 0.1475295592107234988 ) ) ;
#202 = ORIENTED_EDGE ( 'NONE', *, *, #97, .F. ) ;
#203 = ORGANIZATION ( 'UNSPECIFIED', 'UNSPECIFIED', '' ) ;
#204 = CARTESIAN_POINT ( 'NONE',  ( 0.5253791968664979217, 0.9514914325194478995, 1.933282538235951753 ) ) ;
#205 = AXIS2_PLACEMENT_3D ( 'NONE', #279, #5, #68 ) ;
#206 = CIRCLE ( 'NONE', #171, 1.000000000000000000 ) ;
#207 = CALENDAR_DATE ( 2019, 24, 10 ) ;
#208 = LOCAL_TIME ( 9, 59, 25.00000000000000000, #219 ) ;
#209 = DIRECTION ( 'NONE',  ( 0.0000000000000000000, 1.000000000000000000, 2.168404344971008868E-16 ) ) ;
#210 = CARTESIAN_POINT ( 'NONE',  ( 0.5253791968664979217, 1.951491432519447899, 1.933282538235951975 ) ) ;
#211 = DIRECTION ( 'NONE',  ( 0.0000000000000000000, 0.7071067811865469066, -0.7071067811865482389 ) ) ;
#212 = FACE_OUTER_BOUND ( 'NONE', #297, .T. ) ;
#213 = APPROVAL_PERSON_ORGANIZATION ( #45, #53, #83 ) ;
#214 = CIRCLE ( 'NONE', #135, 0.9500000000000001776 ) ;
#215 = COORDINATED_UNIVERSAL_TIME_OFFSET ( 5, 0, .BEHIND. ) ;
#216 = EDGE_CURVE ( 'NONE', #27, #62, #19, .T. ) ;
#217 = AXIS2_PLACEMENT_3D ( 'NONE', #243, #106, #196 ) ;
#218 = FACE_OUTER_BOUND ( 'NONE', #258, .T. ) ;
#219 = COORDINATED_UNIVERSAL_TIME_OFFSET ( 5, 0, .BEHIND. ) ;
#220 = EDGE_CURVE ( 'NONE', #289, #193, #116, .T. ) ;
#221 = FACE_OUTER_BOUND ( 'NONE', #4, .T. ) ;
#222 = CARTESIAN_POINT ( 'NONE',  ( 0.5253791968664979217, 0.9514914325194480105, 0.1475295592107234988 ) ) ;
#223 = APPLICATION_PROTOCOL_DEFINITION ( 'international standard', 'config_control_design', 1994, #181 ) ;
#224 = DATE_TIME_ROLE ( 'classification_date' ) ;
#225 = ORIENTED_EDGE ( 'NONE', *, *, #216, .T. ) ;
#226 = VECTOR ( 'NONE', #211, 999.9999999999998863 ) ;
#227 = CARTESIAN_POINT ( 'NONE',  ( 0.0000000000000000000, 0.0000000000000000000, 0.0000000000000000000 ) ) ;
#228 = CARTESIAN_POINT ( 'NONE',  ( 0.5253791968664980327, -0.04850856748055197565, 1.264529559210724186 ) ) ;
#229 = AXIS2_PLACEMENT_3D ( 'NONE', #227, #38, #58 ) ;
#230 = DIRECTION ( 'NONE',  ( 0.0000000000000000000, 1.000000000000000000, 2.168404344971008868E-16 ) ) ;
#231 = DIRECTION ( 'NONE',  ( 0.0000000000000000000, -0.7071067811865490160, 0.7071067811865460184 ) ) ;
#232 = ORIENTED_EDGE ( 'NONE', *, *, #31, .T. ) ;
#233 = APPROVAL_PERSON_ORGANIZATION ( #187, #9, #55 ) ;
#234 = DIRECTION ( 'NONE',  ( -0.0000000000000000000, 1.224646799147352714E-16, -1.000000000000000000 ) ) ;
#235 = PRODUCT_RELATED_PRODUCT_CATEGORY ( 'detail', '', ( #245 ) ) ;
#236 = ORIENTED_EDGE ( 'NONE', *, *, #84, .F. ) ;
#237 = CARTESIAN_POINT ( 'NONE',  ( 0.5253791968664980327, 0.001491432519447615131, 1.983282538235951797 ) ) ;
#238 = DIRECTION ( 'NONE',  ( -0.0000000000000000000, 1.224646799147352714E-16, -1.000000000000000000 ) ) ;
#239 = ORIENTED_EDGE ( 'NONE', *, *, #63, .T. ) ;
#240 = APPROVAL ( #269, 'UNSPECIFIED' ) ;
#241 = VERTEX_POINT ( 'NONE', #200 ) ;
#242 = ORIENTED_EDGE ( 'NONE', *, *, #260, .F. ) ;
#243 = CARTESIAN_POINT ( 'NONE',  ( 0.5253791968664979217, 0.9514914325194480105, 1.214529559210723697 ) ) ;
#244 = PERSON_AND_ORGANIZATION_ROLE ( 'creator' ) ;
#245 = PRODUCT ( 'TTN162593-E0W', 'TTN162593-E0W', '', ( #155 ) ) ;
#246 = DIRECTION ( 'NONE',  ( 0.0000000000000000000, 1.000000000000000000, 2.168404344971008868E-16 ) ) ;
#247 = CC_DESIGN_APPROVAL ( #53, ( #152 ) ) ;
#248 = APPROVAL_STATUS ( 'not_yet_approved' ) ;
#249 = EDGE_LOOP ( 'NONE', ( #156, #162, #73, #96 ) ) ;
#250 = LINE ( 'NONE', #123, #91 ) ;
#251 = DIRECTION ( 'NONE',  ( -1.049058705839868792E-16, 1.000000000000000000, 0.0000000000000000000 ) ) ;
#252 = AXIS2_PLACEMENT_3D ( 'NONE', #6, #118, #3 ) ;
#253 = DIRECTION ( 'NONE',  ( 0.0000000000000000000, 1.000000000000000000, 0.0000000000000000000 ) ) ;
#254 = DIRECTION ( 'NONE',  ( -0.0000000000000000000, 1.224646799147352714E-16, -1.000000000000000000 ) ) ;
#255 = EDGE_LOOP ( 'NONE', ( #110, #10, #242, #56 ) ) ;
#256 = DIRECTION ( 'NONE',  ( -0.0000000000000000000, 1.224646799147352714E-16, -1.000000000000000000 ) ) ;
#257 = CARTESIAN_POINT ( 'NONE',  ( 0.5253791968664979217, 0.9514914325194480105, 0.1475295592107234988 ) ) ;
#258 = EDGE_LOOP ( 'NONE', ( #194, #18, #24, #299 ) ) ;
#259 = CIRCLE ( 'NONE', #286, 1.000000000000000000 ) ;
#260 = EDGE_CURVE ( 'NONE', #62, #27, #259, .T. ) ;
#261 = VERTEX_POINT ( 'NONE', #189 ) ;
#262 = CC_DESIGN_PERSON_AND_ORGANIZATION_ASSIGNMENT ( #154, #108, ( #150 ) ) ;
#263 = CARTESIAN_POINT ( 'NONE',  ( 0.5253791968664979217, 1.901491432519448077, 1.983282538235951797 ) ) ;
#264 = LINE ( 'NONE', #21, #98 ) ;
#265 = SPHERICAL_SURFACE ( 'NONE', #138, 2.067000000000000171 ) ;
#266 = APPROVAL_ROLE ( '' ) ;
#267 = CALENDAR_DATE ( 2019, 24, 10 ) ;
#268 = PERSON ( 'UNSPECIFIED', 'UNSPECIFIED', 'UNSPECIFIED', ('UNSPECIFIED'), ('UNSPECIFIED'), ('UNSPECIFIED') ) ;
#269 = APPROVAL_STATUS ( 'not_yet_approved' ) ;
#270 = CONICAL_SURFACE ( 'NONE', #252, 0.9499999999999992895, 0.7853981633974503884 ) ;
#271 = CARTESIAN_POINT ( 'NONE',  ( 0.5253791968664979217, 0.001491432519448807753, 1.214529559210723475 ) ) ;
#272 = CC_DESIGN_PERSON_AND_ORGANIZATION_ASSIGNMENT ( #288, #14, ( #245 ) ) ;
#273 = DIRECTION ( 'NONE',  ( -0.0000000000000000000, 1.224646799147352714E-16, -1.000000000000000000 ) ) ;
#274 = CONICAL_SURFACE ( 'NONE', #79, 1.000000000000000000, 0.7853981633974472798 ) ;
#275 = PERSON_AND_ORGANIZATION ( #268, #203 ) ;
#276 = SHAPE_DEFINITION_REPRESENTATION ( #11, #128 ) ;
#277 = DIRECTION ( 'NONE',  ( 8.659560562354952580E-17, 0.7071067811865489050, 0.7071067811865462405 ) ) ;
#278 = EDGE_CURVE ( 'NONE', #261, #62, #105, .T. ) ;
#279 = CARTESIAN_POINT ( 'NONE',  ( 0.5253791968664979217, 0.9514914325194480105, 1.214529559210723697 ) ) ;
#280 = EDGE_LOOP ( 'NONE', ( #239, #129, #175, #124 ) ) ;
#281 = CIRCLE ( 'NONE', #12, 0.9500000000000001776 ) ;
#282 = MANIFOLD_SOLID_BREP ( 'TTN162275-1-solid1', #115 ) ;
#283 = CARTESIAN_POINT ( 'NONE',  ( 0.5253791968664979217, 0.9514914325194478995, 1.933282538235951753 ) ) ;
#284 = PERSON_AND_ORGANIZATION ( #268, #203 ) ;
#285 = DESIGN_CONTEXT ( 'detailed design', #181, 'design' ) ;
#286 = AXIS2_PLACEMENT_3D ( 'NONE', #295, #133, #246 ) ;
#287 = LINE ( 'NONE', #64, #80 ) ;
#288 = PERSON_AND_ORGANIZATION ( #268, #203 ) ;
#289 = VERTEX_POINT ( 'NONE', #81 ) ;
#290 = PRODUCT_DEFINITION ( 'UNKNOWN', '', #150, #285 ) ;
#291 = ADVANCED_FACE ( 'NONE', ( #32 ), #197, .T. ) ;
#292 = ORIENTED_EDGE ( 'NONE', *, *, #37, .F. ) ;
#293 = PERSON_AND_ORGANIZATION_ROLE ( 'classification_officer' ) ;
#294 = LOCAL_TIME ( 9, 59, 25.00000000000000000, #215 ) ;
#295 = CARTESIAN_POINT ( 'NONE',  ( 0.5253791968664979217, 0.9514914325194480105, 1.264529559210724408 ) ) ;
#296 = CARTESIAN_POINT ( 'NONE',  ( 0.5253791968664979217, 0.9514914325194480105, 1.214529559210723697 ) ) ;
#297 = EDGE_LOOP ( 'NONE', ( #101, #76, #50, #236 ) ) ;
#298 =( NAMED_UNIT ( * ) SI_UNIT ( $, .STERADIAN. ) SOLID_ANGLE_UNIT ( ) );
#299 = ORIENTED_EDGE ( 'NONE', *, *, #216, .F. ) ;
#300 = LOCAL_TIME ( 9, 59, 25.00000000000000000, #125 ) ;
#301 = DIRECTION ( 'NONE',  ( 0.0000000000000000000, 1.000000000000000000, 2.168404344971008868E-16 ) ) ;
ENDSEC;
END-ISO-10303-21;
