ISO-10303-21;
HEADER;
FILE_DESCRIPTION (( 'STEP AP203' ),
    '1' );
FILE_NAME ('Web Model 20207_20208.step',
    '2022-03-01T15:53:03',
    ( '' ),
    ( '' ),
    'SwSTEP 2.0',
    'SolidWorks 2021',
    '' );
FILE_SCHEMA (( 'CONFIG_CONTROL_DESIGN' ));
ENDSEC;

DATA;
#1 = ORIENTED_EDGE ( 'NONE', *, *, #154, .F. ) ;
#2 = DIRECTION ( 'NONE',  ( 0.000000000000000000, 0.000000000000000000, 1.000000000000000000 ) ) ;
#3 = DIRECTION ( 'NONE',  ( 1.000000000000000000, 0.000000000000000000, 0.000000000000000000 ) ) ;
#4 = CARTESIAN_POINT ( 'NONE',  ( 0.000000000000000000, 0.000000000000000000, 0.1000000000000000056 ) ) ;
#5 = ORGANIZATION ( 'UNSPECIFIED', 'UNSPECIFIED', '' ) ;
#6 = CARTESIAN_POINT ( 'NONE',  ( 5.000000000000000000, 6.123233995736766282E-16, 0.000000000000000000 ) ) ;
#7 = DATE_TIME_ROLE ( 'classification_date' ) ;
#8 = PERSON_AND_ORGANIZATION ( #21, #5 ) ;
#9 = SHAPE_DEFINITION_REPRESENTATION ( #104, #163 ) ;
#10 = PRODUCT_RELATED_PRODUCT_CATEGORY ( 'detail', '', ( #144 ) ) ;
#11 = CIRCLE ( 'NONE', #121, 5.000000000000000000 ) ;
#12 = DATE_AND_TIME ( #52, #115 ) ;
#13 = ORIENTED_EDGE ( 'NONE', *, *, #118, .T. ) ;
#14 = CIRCLE ( 'NONE', #69, 5.000000000000000000 ) ;
#15 = DIRECTION ( 'NONE',  ( 1.000000000000000000, 0.000000000000000000, -0.000000000000000000 ) ) ;
#16 = VECTOR ( 'NONE', #57, 1000.000000000000000 ) ;
#17 = EDGE_CURVE ( 'NONE', #92, #81, #134, .T. ) ;
#18 = CC_DESIGN_PERSON_AND_ORGANIZATION_ASSIGNMENT ( #77, #86, ( #78 ) ) ;
#19 = DIRECTION ( 'NONE',  ( -1.000000000000000000, 0.000000000000000000, 0.000000000000000000 ) ) ;
#20 =( NAMED_UNIT ( * ) SI_UNIT ( $, .STERADIAN. ) SOLID_ANGLE_UNIT ( ) );
#21 = PERSON ( 'UNSPECIFIED', 'UNSPECIFIED', 'UNSPECIFIED', ('UNSPECIFIED'), ('UNSPECIFIED'), ('UNSPECIFIED') ) ;
#22 = CYLINDRICAL_SURFACE ( 'NONE', #166, 5.000000000000000000 ) ;
#23 = CC_DESIGN_PERSON_AND_ORGANIZATION_ASSIGNMENT ( #8, #26, ( #144 ) ) ;
#24 = APPROVAL_DATE_TIME ( #112, #41 ) ;
#25 = PERSON_AND_ORGANIZATION ( #21, #5 ) ;
#26 = PERSON_AND_ORGANIZATION_ROLE ( 'design_owner' ) ;
#27 = PERSON_AND_ORGANIZATION_ROLE ( 'creator' ) ;
#28 = VERTEX_POINT ( 'NONE', #46 ) ;
#29 = CC_DESIGN_APPROVAL ( #88, ( #174 ) ) ;
#30 = CARTESIAN_POINT ( 'NONE',  ( 0.000000000000000000, 0.000000000000000000, 0.1000000000000000056 ) ) ;
#31 = CARTESIAN_POINT ( 'NONE',  ( 0.000000000000000000, 0.000000000000000000, 0.000000000000000000 ) ) ;
#32 = CARTESIAN_POINT ( 'NONE',  ( 5.000000000000000000, 6.123233995736766282E-16, 0.1000000000000000056 ) ) ;
#33 = DIRECTION ( 'NONE',  ( -0.000000000000000000, -0.000000000000000000, -1.000000000000000000 ) ) ;
#34 = PERSON_AND_ORGANIZATION ( #21, #5 ) ;
#35 = PERSON_AND_ORGANIZATION ( #21, #5 ) ;
#36 = EDGE_CURVE ( 'NONE', #81, #28, #11, .T. ) ;
#37 = CC_DESIGN_SECURITY_CLASSIFICATION ( #174, ( #78 ) ) ;
#38 = PERSON_AND_ORGANIZATION_ROLE ( 'classification_officer' ) ;
#39 = AXIS2_PLACEMENT_3D ( 'NONE', #60, #169, #152 ) ;
#40 = APPROVAL ( #74, 'UNSPECIFIED' ) ;
#41 = APPROVAL ( #76, 'UNSPECIFIED' ) ;
#42 = UNCERTAINTY_MEASURE_WITH_UNIT (LENGTH_MEASURE( 1.000000000000000082E-05 ), #45, 'distance_accuracy_value', 'NONE');
#43 = CLOSED_SHELL ( 'NONE', ( #61, #132, #50, #126 ) ) ;
#44 = ORIENTED_EDGE ( 'NONE', *, *, #65, .T. ) ;
#45 =( LENGTH_UNIT ( ) NAMED_UNIT ( * ) SI_UNIT ( .MILLI., .METRE. ) );
#46 = CARTESIAN_POINT ( 'NONE',  ( -5.000000000000000000, 0.000000000000000000, 0.000000000000000000 ) ) ;
#47 = LOCAL_TIME ( 10, 53, 3.000000000000000000, #172 ) ;
#48 = CARTESIAN_POINT ( 'NONE',  ( 5.000000000000000000, 6.123233995736766282E-16, 0.1000000000000000056 ) ) ;
#49 = FACE_OUTER_BOUND ( 'NONE', #117, .T. ) ;
#50 = ADVANCED_FACE ( 'NONE', ( #71 ), #93, .T. ) ;
#51 = PERSON_AND_ORGANIZATION ( #21, #5 ) ;
#52 = CALENDAR_DATE ( 2022, 1, 3 ) ;
#53 = CC_DESIGN_PERSON_AND_ORGANIZATION_ASSIGNMENT ( #34, #38, ( #174 ) ) ;
#54 = PERSON_AND_ORGANIZATION_ROLE ( 'creator' ) ;
#55 = CC_DESIGN_DATE_AND_TIME_ASSIGNMENT ( #171, #157, ( #130 ) ) ;
#56 = MANIFOLD_SOLID_BREP ( 'Boss-Extrude1', #43 ) ;
#57 = DIRECTION ( 'NONE',  ( -0.000000000000000000, -0.000000000000000000, -1.000000000000000000 ) ) ;
#58 = CIRCLE ( 'NONE', #159, 5.000000000000000000 ) ;
#59 = DIRECTION ( 'NONE',  ( 1.000000000000000000, 0.000000000000000000, 0.000000000000000000 ) ) ;
#60 = CARTESIAN_POINT ( 'NONE',  ( 0.000000000000000000, 0.000000000000000000, 0.000000000000000000 ) ) ;
#61 = ADVANCED_FACE ( 'NONE', ( #108 ), #22, .T. ) ;
#62 = APPLICATION_PROTOCOL_DEFINITION ( 'international standard', 'config_control_design', 1994, #147 ) ;
#63 = MECHANICAL_CONTEXT ( 'NONE', #120, 'mechanical' ) ;
#64 = SECURITY_CLASSIFICATION_LEVEL ( 'unclassified' ) ;
#65 = EDGE_CURVE ( 'NONE', #162, #28, #124, .T. ) ;
#66 = ORIENTED_EDGE ( 'NONE', *, *, #118, .F. ) ;
#67 = ORIENTED_EDGE ( 'NONE', *, *, #154, .T. ) ;
#68 = DIRECTION ( 'NONE',  ( 1.000000000000000000, 0.000000000000000000, -0.000000000000000000 ) ) ;
#69 = AXIS2_PLACEMENT_3D ( 'NONE', #4, #70, #138 ) ;
#70 = DIRECTION ( 'NONE',  ( 0.000000000000000000, 0.000000000000000000, 1.000000000000000000 ) ) ;
#71 = FACE_OUTER_BOUND ( 'NONE', #146, .T. ) ;
#72 = EDGE_LOOP ( 'NONE', ( #66, #116 ) ) ;
#73 = CARTESIAN_POINT ( 'NONE',  ( -5.000000000000000000, 0.000000000000000000, 0.1000000000000000056 ) ) ;
#74 = APPROVAL_STATUS ( 'not_yet_approved' ) ;
#75 = APPROVAL_STATUS ( 'not_yet_approved' ) ;
#76 = APPROVAL_STATUS ( 'not_yet_approved' ) ;
#77 = PERSON_AND_ORGANIZATION ( #21, #5 ) ;
#78 = PRODUCT_DEFINITION_FORMATION_WITH_SPECIFIED_SOURCE ( 'ANY', '', #144, .NOT_KNOWN. ) ;
#79 = CIRCLE ( 'NONE', #39, 5.000000000000000000 ) ;
#80 = AXIS2_PLACEMENT_3D ( 'NONE', #31, #2, #68 ) ;
#81 = VERTEX_POINT ( 'NONE', #6 ) ;
#82 = CARTESIAN_POINT ( 'NONE',  ( 0.000000000000000000, 0.000000000000000000, 0.1000000000000000056 ) ) ;
#83 = DIRECTION ( 'NONE',  ( -0.000000000000000000, -0.000000000000000000, -1.000000000000000000 ) ) ;
#84 = DIRECTION ( 'NONE',  ( 0.000000000000000000, 0.000000000000000000, 1.000000000000000000 ) ) ;
#85 = DIRECTION ( 'NONE',  ( -1.000000000000000000, 0.000000000000000000, 0.000000000000000000 ) ) ;
#86 = PERSON_AND_ORGANIZATION_ROLE ( 'design_supplier' ) ;
#87 = APPROVAL_PERSON_ORGANIZATION ( #25, #88, #145 ) ;
#88 = APPROVAL ( #75, 'UNSPECIFIED' ) ;
#89 = CARTESIAN_POINT ( 'NONE',  ( 0.000000000000000000, 0.000000000000000000, 0.000000000000000000 ) ) ;
#90 = AXIS2_PLACEMENT_3D ( 'NONE', #155, #33, #85 ) ;
#91 = COORDINATED_UNIVERSAL_TIME_OFFSET ( 5, 0, .BEHIND. ) ;
#92 = VERTEX_POINT ( 'NONE', #48 ) ;
#93 = PLANE ( 'NONE',  #113 ) ;
#94 = EDGE_CURVE ( 'NONE', #162, #92, #58, .T. ) ;
#95 = CARTESIAN_POINT ( 'NONE',  ( -5.000000000000000000, 0.000000000000000000, 0.1000000000000000056 ) ) ;
#96 = EDGE_LOOP ( 'NONE', ( #1, #148, #175, #119 ) ) ;
#97 = AXIS2_PLACEMENT_3D ( 'NONE', #89, #98, #114 ) ;
#98 = DIRECTION ( 'NONE',  ( 0.000000000000000000, 0.000000000000000000, 1.000000000000000000 ) ) ;
#99 = APPROVAL_ROLE ( '' ) ;
#100 = PERSON_AND_ORGANIZATION ( #21, #5 ) ;
#101 = COORDINATED_UNIVERSAL_TIME_OFFSET ( 5, 0, .BEHIND. ) ;
#102 = LOCAL_TIME ( 10, 53, 3.000000000000000000, #170 ) ;
#103 = CALENDAR_DATE ( 2022, 1, 3 ) ;
#104 = PRODUCT_DEFINITION_SHAPE ( 'NONE', 'NONE',  #130 ) ;
#105 = ORIENTED_EDGE ( 'NONE', *, *, #17, .F. ) ;
#106 = APPROVAL_PERSON_ORGANIZATION ( #35, #41, #139 ) ;
#107 = DIRECTION ( 'NONE',  ( 0.000000000000000000, 0.000000000000000000, 1.000000000000000000 ) ) ;
#108 = FACE_OUTER_BOUND ( 'NONE', #96, .T. ) ;
#109 = VECTOR ( 'NONE', #135, 1000.000000000000000 ) ;
#110 =( NAMED_UNIT ( * ) PLANE_ANGLE_UNIT ( ) SI_UNIT ( $, .RADIAN. ) );
#111 = CALENDAR_DATE ( 2022, 1, 3 ) ;
#112 = DATE_AND_TIME ( #103, #149 ) ;
#113 = AXIS2_PLACEMENT_3D ( 'NONE', #167, #84, #15 ) ;
#114 = DIRECTION ( 'NONE',  ( 1.000000000000000000, 0.000000000000000000, 0.000000000000000000 ) ) ;
#115 = LOCAL_TIME ( 10, 53, 3.000000000000000000, #160 ) ;
#116 = ORIENTED_EDGE ( 'NONE', *, *, #36, .F. ) ;
#117 = EDGE_LOOP ( 'NONE', ( #105, #153, #44, #13 ) ) ;
#118 = EDGE_CURVE ( 'NONE', #28, #81, #79, .T. ) ;
#119 = ORIENTED_EDGE ( 'NONE', *, *, #65, .F. ) ;
#120 = APPLICATION_CONTEXT ( 'configuration controlled 3d designs of mechanical parts and assemblies' ) ;
#121 = AXIS2_PLACEMENT_3D ( 'NONE', #122, #107, #3 ) ;
#122 = CARTESIAN_POINT ( 'NONE',  ( 0.000000000000000000, 0.000000000000000000, 0.000000000000000000 ) ) ;
#123 = DIRECTION ( 'NONE',  ( 0.000000000000000000, 0.000000000000000000, 1.000000000000000000 ) ) ;
#124 = LINE ( 'NONE', #95, #109 ) ;
#125 = CALENDAR_DATE ( 2022, 1, 3 ) ;
#126 = ADVANCED_FACE ( 'NONE', ( #150 ), #137, .F. ) ;
#127 = APPROVAL_DATE_TIME ( #12, #40 ) ;
#128 = CALENDAR_DATE ( 2022, 1, 3 ) ;
#129 = CC_DESIGN_PERSON_AND_ORGANIZATION_ASSIGNMENT ( #143, #27, ( #130 ) ) ;
#130 = PRODUCT_DEFINITION ( 'UNKNOWN', '', #78, #161 ) ;
#131 = APPROVAL_PERSON_ORGANIZATION ( #51, #40, #99 ) ;
#132 = ADVANCED_FACE ( 'NONE', ( #49 ), #136, .T. ) ;
#133 = CC_DESIGN_DATE_AND_TIME_ASSIGNMENT ( #140, #7, ( #174 ) ) ;
#134 = LINE ( 'NONE', #32, #16 ) ;
#135 = DIRECTION ( 'NONE',  ( -0.000000000000000000, -0.000000000000000000, -1.000000000000000000 ) ) ;
#136 = CYLINDRICAL_SURFACE ( 'NONE', #90, 5.000000000000000000 ) ;
#137 = PLANE ( 'NONE',  #80 ) ;
#138 = DIRECTION ( 'NONE',  ( 1.000000000000000000, 0.000000000000000000, 0.000000000000000000 ) ) ;
#139 = APPROVAL_ROLE ( '' ) ;
#140 = DATE_AND_TIME ( #111, #156 ) ;
#141 = CC_DESIGN_PERSON_AND_ORGANIZATION_ASSIGNMENT ( #100, #54, ( #78 ) ) ;
#142 = CC_DESIGN_APPROVAL ( #41, ( #130 ) ) ;
#143 = PERSON_AND_ORGANIZATION ( #21, #5 ) ;
#144 = PRODUCT ( 'Web Model 20207_20208', 'Web Model 20207_20208', '', ( #63 ) ) ;
#145 = APPROVAL_ROLE ( '' ) ;
#146 = EDGE_LOOP ( 'NONE', ( #151, #67 ) ) ;
#147 = APPLICATION_CONTEXT ( 'configuration controlled 3d designs of mechanical parts and assemblies' ) ;
#148 = ORIENTED_EDGE ( 'NONE', *, *, #17, .T. ) ;
#149 = LOCAL_TIME ( 10, 53, 3.000000000000000000, #101 ) ;
#150 = FACE_OUTER_BOUND ( 'NONE', #72, .T. ) ;
#151 = ORIENTED_EDGE ( 'NONE', *, *, #94, .T. ) ;
#152 = DIRECTION ( 'NONE',  ( 1.000000000000000000, 0.000000000000000000, 0.000000000000000000 ) ) ;
#153 = ORIENTED_EDGE ( 'NONE', *, *, #94, .F. ) ;
#154 = EDGE_CURVE ( 'NONE', #92, #162, #14, .T. ) ;
#155 = CARTESIAN_POINT ( 'NONE',  ( 0.000000000000000000, 0.000000000000000000, 0.1000000000000000056 ) ) ;
#156 = LOCAL_TIME ( 10, 53, 3.000000000000000000, #91 ) ;
#157 = DATE_TIME_ROLE ( 'creation_date' ) ;
#158 = DATE_AND_TIME ( #125, #102 ) ;
#159 = AXIS2_PLACEMENT_3D ( 'NONE', #82, #123, #59 ) ;
#160 = COORDINATED_UNIVERSAL_TIME_OFFSET ( 5, 0, .BEHIND. ) ;
#161 = DESIGN_CONTEXT ( 'detailed design', #147, 'design' ) ;
#162 = VERTEX_POINT ( 'NONE', #73 ) ;
#163 = ADVANCED_BREP_SHAPE_REPRESENTATION ( 'Web Model 20207_20208', ( #56, #97 ), #164 ) ;
#164 =( GEOMETRIC_REPRESENTATION_CONTEXT ( 3 ) GLOBAL_UNCERTAINTY_ASSIGNED_CONTEXT ( ( #42 ) ) GLOBAL_UNIT_ASSIGNED_CONTEXT ( ( #45, #110, #20 ) ) REPRESENTATION_CONTEXT ( 'NONE', 'WORKASPACE' ) );
#165 = APPLICATION_PROTOCOL_DEFINITION ( 'international standard', 'config_control_design', 1994, #120 ) ;
#166 = AXIS2_PLACEMENT_3D ( 'NONE', #30, #83, #19 ) ;
#167 = CARTESIAN_POINT ( 'NONE',  ( 0.000000000000000000, 0.000000000000000000, 0.1000000000000000056 ) ) ;
#168 = CC_DESIGN_APPROVAL ( #40, ( #78 ) ) ;
#169 = DIRECTION ( 'NONE',  ( 0.000000000000000000, 0.000000000000000000, 1.000000000000000000 ) ) ;
#170 = COORDINATED_UNIVERSAL_TIME_OFFSET ( 5, 0, .BEHIND. ) ;
#171 = DATE_AND_TIME ( #128, #47 ) ;
#172 = COORDINATED_UNIVERSAL_TIME_OFFSET ( 5, 0, .BEHIND. ) ;
#173 = APPROVAL_DATE_TIME ( #158, #88 ) ;
#174 = SECURITY_CLASSIFICATION ( '', '', #64 ) ;
#175 = ORIENTED_EDGE ( 'NONE', *, *, #36, .T. ) ;
ENDSEC;
END-ISO-10303-21;
