  0
SECTION
  2
HEADER
  9
$ACADVER
  1
AC1015
  9
$ACADMAINTVER
 70
     6
  9
$DWGCODEPAGE
  3
ANSI_932
  9
$INSBASE
 10
0.0
 20
0.0
 30
0.0
  9
$EXTMIN
 10
4.202155
 20
73.838732
 30
1.000000E+20
  9
$EXTMAX
 10
211.666667
 20
205.48806
 30
-1.000000E+20
  9
$LIMMIN
 10
4.202155
 20
73.838732
  9
$LIMMAX
 10
211.666667
 20
205.48806
  9
$ORTHOMODE
 70
     0
  9
$REGENMODE
 70
     1
  9
$FILLMODE
 70
     1
  9
$QTEXTMODE
 70
     0
  9
$MIRRTEXT
 70
     1
  9
$LTSCALE
 40
1.0
  9
$ATTMODE
 70
     1
  9
$TEXTSIZE
 40
0.2
  9
$TRACEWID
 40
0.05
  9
$TEXTSTYLE
  7
Standard
  9
$CLAYER
  8
0
  9
$CELTYPE
  6
Continuous
  9
$CECOLOR
 62
   256
  9
$CELTSCALE
 40
1.0
  9
$DISPSILH
 70
     0
  9
$DIMSCALE
 40
1.0
  9
$DIMASZ
 40
0.18
  9
$DIMEXO
 40
0.0625
  9
$DIMDLI
 40
0.38
  9
$DIMRND
 40
0.0
  9
$DIMDLE
 40
0.0
  9
$DIMEXE
 40
0.18
  9
$DIMTP
 40
0.0
  9
$DIMTM
 40
0.0
  9
$DIMTXT
 40
0.18
  9
$DIMCEN
 40
0.09
  9
$DIMTSZ
 40
0.0
  9
$DIMTOL
 70
     0
  9
$DIMLIM
 70
     0
  9
$DIMTIH
 70
     1
  9
$DIMTOH
 70
     1
  9
$DIMSE1
 70
     0
  9
$DIMSE2
 70
     0
  9
$DIMTAD
 70
     0
  9
$DIMZIN
 70
     0
  9
$DIMBLK
  1

  9
$DIMASO
 70
     1
  9
$DIMSHO
 70
     1
  9
$DIMPOST
  1

  9
$DIMAPOST
  1

  9
$DIMALT
 70
     0
  9
$DIMALTD
 70
     2
  9
$DIMALTF
 40
25.4
  9
$DIMLFAC
 40
1.0
  9
$DIMTOFL
 70
     0
  9
$DIMTVP
 40
0.0
  9
$DIMTIX
 70
     0
  9
$DIMSOXD
 70
     0
  9
$DIMSAH
 70
     0
  9
$DIMBLK1
  1

  9
$DIMBLK2
  1

  9
$DIMSTYLE
  2
Standard
  9
$DIMCLRD
 70
     0
  9
$DIMCLRE
 70
     0
  9
$DIMCLRT
 70
     0
  9
$DIMTFAC
 40
1.0
  9
$DIMGAP
 40
0.09
  9
$DIMJUST
 70
     0
  9
$DIMSD1
 70
     0
  9
$DIMSD2
 70
     0
  9
$DIMTOLJ
 70
     1
  9
$DIMTZIN
 70
     0
  9
$DIMALTZ
 70
     0
  9
$DIMALTTZ
 70
     0
  9
$DIMUPT
 70
     0
  9
$DIMDEC
 70
     4
  9
$DIMTDEC
 70
     4
  9
$DIMALTU
 70
     2
  9
$DIMALTTD
 70
     2
  9
$DIMTXSTY
  7
Standard
  9
$DIMAUNIT
 70
     0
  9
$DIMADEC
 70
     0
  9
$DIMALTRND
 40
0.0
  9
$DIMAZIN
 70
     0
  9
$DIMDSEP
 70
     0
  9
$DIMATFIT
 70
     3
  9
$DIMFRAC
 70
     0
  9
$DIMLDRBLK
  1

  9
$DIMLUNIT
 70
     2
  9
$DIMLWD
 70
     0
  9
$DIMLWE
 70
     0
  9
$DIMTMOVE
 70
     0
  9
$LUNITS
 70
     2
  9
$LUPREC
 70
     4
  9
$SKETCHINC
 40
0.1
  9
$FILLETRAD
 40
0.0
  9
$AUNITS
 70
     0
  9
$AUPREC
 70
     0
  9
$MENU
  1
acad
  9
$ELEVATION
 40
0.0
  9
$PELEVATION
 40
0.0
  9
$THICKNESS
 40
0.0
  9
$LIMCHECK
 70
     0
  9
$CHAMFERA
 40
0.0
  9
$CHAMFERB
 40
0.0
  9
$CHAMFERC
 40
0.0
  9
$CHAMFERD
 40
0.0
  9
$SKPOLY
 70
     0
  9
$TDCREATE
 40
0.000000000
  9
$TDUCREATE
 40
0.000000000
  9
$TDUPDATE
 40
0.000000000
  9
$TDUUPDATE
 40
0.000000000
  9
$TDINDWG
 40
0.0000000000
  9
$TDUSRTIMER
 40
0.0000000000
  9
$USRTIMER
 70
     1
  9
$ANGBASE
 50
0.0
  9
$ANGDIR
 70
     0
  9
$PDMODE
 70
     0
  9
$PDSIZE
 40
0.0
  9
$PLINEWID
 40
0.0
  9
$SPLFRAME
 70
     0
  9
$SPLINETYPE
 70
     6
  9
$SPLINESEGS
 70
     8
  9
$HANDSEED
  5
369
  9
$SURFTAB1
 70
     6
  9
$SURFTAB2
 70
     6
  9
$SURFTYPE
 70
     6
  9
$SURFU
 70
     6
  9
$SURFV
 70
     6
  9
$UCSBASE
  2

  9
$UCSNAME
  2

  9
$UCSORG
 10
0.0
 20
0.0
 30
0.0
  9
$UCSXDIR
 10
1.0
 20
0.0
 30
0.0
  9
$UCSYDIR
 10
0.0
 20
1.0
 30
0.0
  9
$UCSORTHOREF
  2

  9
$UCSORTHOVIEW
 70
     0
  9
$UCSORGTOP
 10
0.0
 20
0.0
 30
0.0
  9
$UCSORGBOTTOM
 10
0.0
 20
0.0
 30
0.0
  9
$UCSORGLEFT
 10
0.0
 20
0.0
 30
0.0
  9
$UCSORGRIGHT
 10
0.0
 20
0.0
 30
0.0
  9
$UCSORGFRONT
 10
0.0
 20
0.0
 30
0.0
  9
$UCSORGBACK
 10
0.0
 20
0.0
 30
0.0
  9
$PUCSBASE
  2

  9
$PUCSNAME
  2

  9
$PUCSORG
 10
0.0
 20
0.0
 30
0.0
  9
$PUCSXDIR
 10
1.0
 20
0.0
 30
0.0
  9
$PUCSYDIR
 10
0.0
 20
1.0
 30
0.0
  9
$PUCSORTHOREF
  2

  9
$PUCSORTHOVIEW
 70
     0
  9
$PUCSORGTOP
 10
0.0
 20
0.0
 30
0.0
  9
$PUCSORGBOTTOM
 10
0.0
 20
0.0
 30
0.0
  9
$PUCSORGLEFT
 10
0.0
 20
0.0
 30
0.0
  9
$PUCSORGRIGHT
 10
0.0
 20
0.0
 30
0.0
  9
$PUCSORGFRONT
 10
0.0
 20
0.0
 30
0.0
  9
$PUCSORGBACK
 10
0.0
 20
0.0
 30
0.0
  9
$USERI1
 70
     0
  9
$USERI2
 70
     0
  9
$USERI3
 70
     0
  9
$USERI4
 70
     0
  9
$USERI5
 70
     0
  9
$USERR1
 40
0.0
  9
$USERR2
 40
0.0
  9
$USERR3
 40
0.0
  9
$USERR4
 40
0.0
  9
$USERR5
 40
0.0
  9
$WORLDVIEW
 70
     1
  9
$SHADEDGE
 70
     3
  9
$SHADEDIF
 70
    70
  9
$TILEMODE
 70
     1
  9
$MAXACTVP
 70
    16
  9
$PINSBASE
 10
0.0
 20
0.0
 30
0.0
  9
$PLIMCHECK
 70
     0
  9
$PEXTMIN
 10
1.000000E+20
 20
1.000000E+20
 30
1.000000E+20
  9
$PEXTMAX
 10
-1.000000E+20
 20
-1.000000E+20
 30
-1.000000E+20
  9
$PLIMMIN
 10
0.0
 20
0.0
  9
$PLIMMAX
 10
12.0
 20
9.0
  9
$UNITMODE
 70
     0
  9
$VISRETAIN
 70
     0
  9
$PLINEGEN
 70
     1
  9
$PSLTSCALE
 70
     0
  9
$TREEDEPTH
 70
  3020
  9
$CMLSTYLE
  2
Standard
  9
$CMLJUST
 70
     0
  9
$CMLSCALE
 40
1.0
  9
$PROXYGRAPHICS
 70
     0
  9
$MEASUREMENT
 70
     0
  9
$CELWEIGHT
370
     0
  9
$ENDCAPS
280
     0
  9
$JOINSTYLE
280
     0
  9
$LWDISPLAY
290
     0
  9
$INSUNITS
 70
     0
  9
$HYPERLINKBASE
  1

  9
$XEDIT
290
     1
  9
$CEPSNTYPE
380
     0
  9
$PSTYLEMODE
290
     1
  9
$FINGERPRINTGUID
  2

  9
$VERSIONGUID
  2

  9
$EXTNAMES
290
     1
  9
$PSVPSCALE
 40
0.0
  0
ENDSEC
  0
SECTION
  2
CLASSES
  0
CLASS
  1
LWPOLYLINE
  2
AcDbPolyline
  3
"AutoCAD"
 90
        0
280
     0
281
     1
  0
CLASS
  1
IMAGE
  2
AcDbRasterImage
  3
ISM
 90
      127
280
     0
281
     1
  0
CLASS
  1
OLE2FRAME
  2
AcDbOle2Frame
  3
""
 90
        0
280
     0
281
     1
  0
CLASS
  1
HATCH
  2
AcDbHatch
  3
"ACAD_SEDONA"
 90
        0
280
     0
281
     1
  0
CLASS
  1
DICTIONARYVAR
  2
AcDbDictionaryVar
  3
"AutoCAD"
 90
        0
280
     0
281
     0
  0
CLASS
  1
RASTERVARIABLES
  2
AcDbRasterVariables
  3
ISM
 90
        0
280
     0
281
     0
  0
CLASS
  1
IMAGEDEF
  2
AcDbRasterImageDef
  3
ISM
 90
        0
280
     0
281
     0
  0
CLASS
  1
IMAGEDEF_REACTOR
  2
AcDbRasterImageDefReactor
  3
ISM
 90
        1
280
     0
281
     0
  0
CLASS
  1
IDBUFFER
  2
AcDbIdBuffer
  3
"Acad"
 90
        0
280
     0
281
     0
  0
CLASS
  1
SPATIAL_FILTER
  2
AcDbSpatialFilter
  3
"Acad"
 90
        0
280
     0
281
     0
  0
CLASS
  1
XRECORD
  2
AcDbXrecord
  3
"<Built In>"
 90
        0
280
     0
281
     0
  0
CLASS
  1
SORTENTSTABLE
  2
AcDbSortentsTable
  3
"AutoCAD"
 90
        0
280
     0
281
     0
  0
CLASS
  1
LAYER_INDEX
  2
AcDbLayerIndex
  3
"Acad"
 90
        0
280
     0
281
     0
  0
CLASS
  1
SPATIAL_INDEX
  2
AcDbSpatialIndex
  3
"Acad"
 90
        0
280
     0
281
     0
  0
CLASS
  1
OBJECT_PTR
  2
CAseDLPNTableRecord
  3
"ASE-LPNTableRecord"
 90
        1
280
     0
281
     0
  0
CLASS
  1
LAYOUT
  2
AcDbLayout
  3
"AutoCAD 2000"
 90
        1
280
     0
281
     0
  0
CLASS
  1
PLOTSETTINGS
  2
AcDbPlotSettings
  3
"AutoCAD 2000"
 90
        1
280
     0
281
     0
  0
CLASS
  1
ACDBDICTIONARYWDFLT
  2
AcDbDictionaryWithDefault
  3
"AutoCAD 2000"
 90
        1
280
     0
281
     0
  0
CLASS
  1
ACDBPLACEHOLDER
  2
AcDbPlaceHolder
  3
"AutoCAD 2000"
 90
        1
280
     0
281
     0
  0
CLASS
  1
VBA_PROJECT
  2
AcDbVbaProject
  3
"acadvba"
 90
        1
280
     0
281
     0
  0
CLASS
  1
WIPEOUT
  2
AcDbWipeout
  3
WipeOut|AutoCAD Express Tool|expresstools@autodesk.com
 90
      127
280
     0
281
     1
  0
CLASS
  1
WIPEOUTVARIABLES
  2
AcDbWipeoutVariables
  3
WipeOut|AutoCAD Express Tool|expresstools@autodesk.com
 90
        0
280
     0
281
     0
  0
CLASS
  1
RTEXT
  2
RText
  3
RText|AutoCAD Express Tool|expresstools@autodesk.com
 90
        0
280
     0
281
     1
  0
CLASS
  1
ARCALIGNEDTEXT
  2
AcDbArcAlignedText
  3
ATEXT|AutoCAD Express Tool|expresstools@autodesk.com
 90
        0
280
     0
281
     1
  0
ENDSEC
  0
SECTION
  2
TABLES
  0
TABLE
  2
VPORT
  5
7
100
AcDbSymbolTable
 70
     1
  0
VPORT
  5
15
100
AcDbSymbolTableRecord
100
AcDbViewportTableRecord
  2
*ACTIVE
 70
     0
 10
0.0
 20
0.0
 11
1.0
 21
1.0
 12
6.591288
 22
4.579184
 13
0.0
 23
0.0
 14
1.0
 24
1.0
 15
0.0
 25
0.0
 16
0.0
 26
0.0
 36
1.0
 17
0.0
 27
0.0
 37
0.0
 40
9.158369
 41
0.688564
 42
50.0
 43
0.0
 44
0.0
 50
0.0
 51
0.0
 71
     0
 72
   100
 73
     1
 74
     1
 75
     0
 76
     0
 77
     0
 78
     0
281
     0
 65
     0
110
0.0
120
0.0
130
0.0
111
1.0
121
0.0
131
0.0
112
0.0
122
1.0
132
0.0
345
0
346
0
 79
     0
146
0.0
  0
ENDTAB
  0
TABLE
  2
LTYPE
  5
4
100
AcDbSymbolTable
 70
     3
  0
LTYPE
  5
11
100
AcDbSymbolTableRecord
100
AcDbLinetypeTableRecord
  2
ByBlock
 70
    64
  3

 72
    65
 73
     0
 40
0.0
  0
LTYPE
  5
12
100
AcDbSymbolTableRecord
100
AcDbLinetypeTableRecord
  2
ByLayer
 70
    64
  3

 72
    65
 73
     0
 40
0.0
  0
LTYPE
  5
13
100
AcDbSymbolTableRecord
100
AcDbLinetypeTableRecord
  2
Continuous
 70
    64
  3
Solid line
 72
    65
 73
     0
 40
0.0
  0
ENDTAB
  0
TABLE
  2
LAYER
  5
2
100
AcDbSymbolTable
 70
    27
  0
LAYER
  5
14
100
AcDbSymbolTableRecord
100
AcDbLayerTableRecord
  2
0
 70
     0
 62
     7
  6
Continuous
290
     1
370
    -3
390
1D
  0
LAYER
  5
28
100
AcDbSymbolTableRecord
100
AcDbLayerTableRecord
  2
LAYER_1
 70
     0
 62
   160
  6
Continuous
290
     1
370
    -3
390
1F
  0
LAYER
  5
29
100
AcDbSymbolTableRecord
100
AcDbLayerTableRecord
  2
0
 70
     0
 62
     7
  6
Continuous
290
     1
370
    -3
390
1F
  0
LAYER
  5
F2
100
AcDbSymbolTableRecord
100
AcDbLayerTableRecord
  2
LAYER_1_0
 70
     0
 62
   160
  6
Continuous
290
     1
370
    -3
390
1F
  0
LAYER
  5
F3
100
AcDbSymbolTableRecord
100
AcDbLayerTableRecord
  2
BORDER
 70
     0
 62
     7
  6
Continuous
290
     1
370
    -3
390
1F
  0
LAYER
  5
2C3
100
AcDbSymbolTableRecord
100
AcDbLayerTableRecord
  2
D1
 70
     0
 62
     7
  6
Continuous
290
     1
370
    -3
390
1F
  0
LAYER
  5
31A
100
AcDbSymbolTableRecord
100
AcDbLayerTableRecord
  2
S2
 70
     0
 62
     7
  6
Continuous
290
     1
370
    -3
390
1F
  0
LAYER
  5
31B
100
AcDbSymbolTableRecord
100
AcDbLayerTableRecord
  2
S1
 70
     0
 62
     7
  6
Continuous
290
     1
370
    -3
390
1F
  0
LAYER
  5
31C
100
AcDbSymbolTableRecord
100
AcDbLayerTableRecord
  2
S3
 70
     0
 62
     7
  6
Continuous
290
     1
370
    -3
390
1F
  0
LAYER
  5
31D
100
AcDbSymbolTableRecord
100
AcDbLayerTableRecord
  2
HEATSINK
 70
     0
 62
     7
  6
Continuous
290
     1
370
    -3
390
1F
  0
LAYER
  5
31E
100
AcDbSymbolTableRecord
100
AcDbLayerTableRecord
  2
BASE
 70
     0
 62
     7
  6
Continuous
290
     1
370
    -3
390
1F
  0
LAYER
  5
31F
100
AcDbSymbolTableRecord
100
AcDbLayerTableRecord
  2
AZIMUTH
 70
     0
 62
     7
  6
Continuous
290
     1
370
    -3
390
1F
  0
LAYER
  5
320
100
AcDbSymbolTableRecord
100
AcDbLayerTableRecord
  2
MECHANICAL1
 70
     0
 62
     7
  6
Continuous
290
     1
370
    -3
390
1F
  0
LAYER
  5
321
100
AcDbSymbolTableRecord
100
AcDbLayerTableRecord
  2
PACKAGE
 70
     0
 62
     7
  6
Continuous
290
     1
370
    -3
390
1F
  0
LAYER
  5
322
100
AcDbSymbolTableRecord
100
AcDbLayerTableRecord
  2
BO
 70
     0
 62
     7
  6
Continuous
290
     1
370
    -3
390
1F
  0
LAYER
  5
323
100
AcDbSymbolTableRecord
100
AcDbLayerTableRecord
  2
DIM1
 70
     0
 62
     6
  6
Continuous
290
     1
370
    -3
390
1F
  0
LAYER
  5
324
100
AcDbSymbolTableRecord
100
AcDbLayerTableRecord
  2
PCB_OUTLINE
 70
     0
 62
     3
  6
Continuous
290
     1
370
    -3
390
1F
  0
LAYER
  5
325
100
AcDbSymbolTableRecord
100
AcDbLayerTableRecord
  2
ADAPTERPLATE
 70
     0
 62
     4
  6
Continuous
290
     1
370
    -3
390
1F
  0
LAYER
  5
326
100
AcDbSymbolTableRecord
100
AcDbLayerTableRecord
  2
ENGRAVE
 70
     0
 62
     7
  6
Continuous
290
     1
370
    -3
390
1F
  0
LAYER
  5
327
100
AcDbSymbolTableRecord
100
AcDbLayerTableRecord
  2
SILK-SCREEN
 70
     0
 62
   255
  6
Continuous
290
     1
370
    -3
390
1F
  0
LAYER
  5
328
100
AcDbSymbolTableRecord
100
AcDbLayerTableRecord
  2
HARDWARE
 70
     0
 62
   254
  6
Continuous
290
     1
370
    -3
390
1F
  0
LAYER
  5
329
100
AcDbSymbolTableRecord
100
AcDbLayerTableRecord
  2
POT
 70
     0
 62
     4
  6
Continuous
290
     1
370
    -3
390
1F
  0
LAYER
  5
32A
100
AcDbSymbolTableRecord
100
AcDbLayerTableRecord
  2
CONNECTORS
 70
     0
 62
     1
  6
Continuous
290
     1
370
    -3
390
1F
  0
LAYER
  5
32B
100
AcDbSymbolTableRecord
100
AcDbLayerTableRecord
  2
ENDCAP
 70
     0
 62
     4
  6
Continuous
290
     1
370
    -3
390
1F
  0
LAYER
  5
32C
100
AcDbSymbolTableRecord
100
AcDbLayerTableRecord
  2
KEYLOCK
 70
     0
 62
     7
  6
Continuous
290
     1
370
    -3
390
1F
  0
LAYER
  5
32D
100
AcDbSymbolTableRecord
100
AcDbLayerTableRecord
  2
DEFPOINTS
 70
     0
 62
     7
  6
Continuous
290
     0
370
    -3
390
1F
  0
LAYER
  5
32E
100
AcDbSymbolTableRecord
100
AcDbLayerTableRecord
  2
SOCKET
 70
     0
 62
    91
  6
Continuous
290
     1
370
    -3
390
1F
  0
ENDTAB
  0
TABLE
  2
STYLE
  5
3
100
AcDbSymbolTable
 70
     5
  0
STYLE
  5
17
100
AcDbSymbolTableRecord
100
AcDbTextStyleTableRecord
  2
Standard
 70
     0
 40
0.0
 41
1.0
 50
0.0
 71
     0
 42
0.0
  3
txt
  4

  0
STYLE
  5
24
100
AcDbSymbolTableRecord
100
AcDbTextStyleTableRecord
  2
STD
 70
     0
 40
0.0
 41
1.0
 50
0.0
 71
     0
 42
0.0
  3
txt
  4

  0
STYLE
  5
25
100
AcDbSymbolTableRecord
100
AcDbTextStyleTableRecord
  2
TATESTD
 70
     4
 40
0.0
 41
1.0
 50
0.0
 71
     0
 42
0.0
  3
txt
  4

  0
STYLE
  5
26
100
AcDbSymbolTableRecord
100
AcDbTextStyleTableRecord
  2
KANJISTD
 70
     0
 40
0.0
 41
1.0
 50
0.0
 71
     0
 42
0.0
  3
txt
  4
extfont
  0
STYLE
  5
27
100
AcDbSymbolTableRecord
100
AcDbTextStyleTableRecord
  2
KANJITATE
 70
     4
 40
0.0
 41
1.0
 50
0.0
 71
     0
 42
0.0
  3
txt
  4
extfont
  0
ENDTAB
  0
TABLE
  2
VIEW
  5
5
100
AcDbSymbolTable
 70
     0
  0
ENDTAB
  0
TABLE
  2
UCS
  5
6
100
AcDbSymbolTable
 70
     0
  0
ENDTAB
  0
TABLE
  2
APPID
  5
8
100
AcDbSymbolTable
 70
     1
  0
APPID
  5
16
100
AcDbSymbolTableRecord
100
AcDbRegAppTableRecord
  2
ACAD
 70
     0
  0
ENDTAB
  0
TABLE
  2
DIMSTYLE
  5
9
100
AcDbSymbolTable
 70
     1
100
AcDbDimStyleTable
 71
     0
  0
DIMSTYLE
105
18
100
AcDbSymbolTableRecord
100
AcDbDimStyleTableRecord
  2
Standard
 70
     0
  3

  4

 40
1.0
 41
0.18
 42
0.0625
 43
0.38
 44
0.18
 45
0.0
 46
0.0
 47
0.0
 48
0.0
 71
     0
 72
     0
 73
     1
 74
     1
 75
     0
 76
     0
 77
     0
 78
     0
 79
     0
140
0.18
141
0.09
142
0.0
143
25.4
144
1.0
145
0.0
146
1.0
147
0.09
148
0.0
170
     0
171
     2
172
     0
173
     0
174
     0
175
     0
176
     0
177
     0
178
     0
179
     0
271
     4
272
     4
273
     2
274
     2
275
     0
276
     0
277
     2
278
    46
279
     0
280
     0
281
     0
282
     0
283
     1
284
     0
285
     0
286
     0
288
     0
340
17
341
0
342
0
343
0
344
0
371
    -2
372
    -2
  0
ENDTAB
  0
TABLE
  2
BLOCK_RECORD
  5
1
100
AcDbSymbolTable
 70
     6
  0
BLOCK_RECORD
  5
A
100
AcDbSymbolTableRecord
100
AcDbBlockTableRecord
  2
*MODEL_SPACE
340
20
  0
BLOCK_RECORD
  5
B
100
AcDbSymbolTableRecord
100
AcDbBlockTableRecord
  2
*PAPER_SPACE
340
21
  0
BLOCK_RECORD
  5
AF
100
AcDbSymbolTableRecord
100
AcDbBlockTableRecord
  2
AI9-BLK1
340
0
  0
BLOCK_RECORD
  5
C4
100
AcDbSymbolTableRecord
100
AcDbBlockTableRecord
  2
AI9-BLK2
340
0
  0
BLOCK_RECORD
  5
D9
100
AcDbSymbolTableRecord
100
AcDbBlockTableRecord
  2
AI9-BLK3
340
0
  0
BLOCK_RECORD
  5
2ED
100
AcDbSymbolTableRecord
100
AcDbBlockTableRecord
  2
AI9-BLK4
340
0
  0
BLOCK_RECORD
  5
2FF
100
AcDbSymbolTableRecord
100
AcDbBlockTableRecord
  2
AI9-BLK5
340
0
  0
BLOCK_RECORD
  5
306
100
AcDbSymbolTableRecord
100
AcDbBlockTableRecord
  2
AI9-BLK6
340
0
  0
ENDTAB
  0
ENDSEC
  0
SECTION
  2
BLOCKS
  0
BLOCK
  5
D
100
AcDbEntity
  8
0
100
AcDbBlockBegin
  2
*MODEL_SPACE
 70
     0
 10
0.0
 20
0.0
 30
0.0
  3
*MODEL_SPACE
  1

  0
ENDBLK
  5
E
100
AcDbEntity
  8
0
100
AcDbBlockEnd
  0
BLOCK
  5
F
100
AcDbEntity
 67
     1
  8
0
100
AcDbBlockBegin
  2
*PAPER_SPACE
 70
     0
 10
0.0
 20
0.0
 30
0.0
  3
*PAPER_SPACE
  1

  0
ENDBLK
  5
10
100
AcDbEntity
 67
     1
  8
0
100
AcDbBlockEnd
  0
BLOCK
  5
B1
100
AcDbEntity
  8
0
 62
     7
100
AcDbBlockBegin
  2
AI9-BLK1
 70
     0
 10
0.0
 20
0.0
 30
0.0
  3
AI9-BLK1
  1

  0
LINE
  5
C2
100
AcDbEntity
  8
0
 62
     7
100
AcDbLine
 10
-7.172
 20
-7.668007
 30
0.0
 11
-7.172
 21
7.668007
 31
0.0
  0
LINE
  5
C1
100
AcDbEntity
  8
0
 62
     7
100
AcDbLine
 10
7.172
 20
-7.668007
 30
0.0
 11
7.172
 21
7.668007
 31
0.0
  0
LINE
  5
C0
100
AcDbEntity
  8
0
 62
     7
100
AcDbLine
 10
-5.30717
 20
6.173697
 30
0.0
 11
-2.648589
 21
6.173697
 31
0.0
  0
LINE
  5
BF
100
AcDbEntity
  8
0
 62
     7
100
AcDbLine
 10
5.307514
 20
6.173697
 30
0.0
 11
2.292711
 21
6.173697
 31
0.0
  0
POLYLINE
  5
BA
100
AcDbEntity
  8
0
 62
     7
100
AcDb2dPolyline
 66
     1
 10
0.0
 20
0.0
 30
0.0
 70
     1
  0
VERTEX
  5
BB
100
AcDbEntity
  8
0
 62
     7
100
AcDbVertex
100
AcDb2dVertex
 10
-5.30717
 20
6.484445
 30
0.0
  0
VERTEX
  5
BC
100
AcDbEntity
  8
0
 62
     7
100
AcDbVertex
100
AcDb2dVertex
 10
-5.30717
 20
5.86295
 30
0.0
  0
VERTEX
  5
BD
100
AcDbEntity
  8
0
 62
     7
100
AcDbVertex
100
AcDb2dVertex
 10
-7.172
 20
6.173697
 30
0.0
  0
SEQEND
  5
BE
100
AcDbEntity
  8
0
 62
     7
  0
HATCH
  5
B9
100
AcDbEntity
  8
0
 62
     7
100
AcDbHatch
 10
0.0
 20
0.0
 30
0.0
210
0.0
220
0.0
230
1.0
  2
SOLID
 70
     1
 71
     0
 91
        1
 92
        3
 72
     0
 73
     1
 93
        3
 10
-5.3071695963541661
 20
6.4844448513454855
 10
-5.3071695963541661
 20
5.8629496256510407
 10
-7.1719997829861102
 20
6.1736972384982636
 97
        0
 75
     0
 76
     1
 98
        1
 10
0.0
 20
0.0
  0
POLYLINE
  5
B4
100
AcDbEntity
  8
0
 62
     7
100
AcDb2dPolyline
 66
     1
 10
0.0
 20
0.0
 30
0.0
 70
     1
  0
VERTEX
  5
B5
100
AcDbEntity
  8
0
 62
     7
100
AcDbVertex
100
AcDb2dVertex
 10
5.307514
 20
6.484445
 30
0.0
  0
VERTEX
  5
B6
100
AcDbEntity
  8
0
 62
     7
100
AcDbVertex
100
AcDb2dVertex
 10
5.307514
 20
5.86295
 30
0.0
  0
VERTEX
  5
B7
100
AcDbEntity
  8
0
 62
     7
100
AcDbVertex
100
AcDb2dVertex
 10
7.172
 20
6.173697
 30
0.0
  0
SEQEND
  5
B8
100
AcDbEntity
  8
0
 62
     7
  0
HATCH
  5
B3
100
AcDbEntity
  8
0
 62
     7
100
AcDbHatch
 10
0.0
 20
0.0
 30
0.0
210
0.0
220
0.0
230
1.0
  2
SOLID
 70
     1
 71
     0
 91
        1
 92
        3
 72
     0
 73
     1
 93
        3
 10
7.1719997829861102
 20
6.1736972384982636
 10
5.3075141059027775
 20
5.8629496256510407
 10
5.3075141059027775
 20
6.4844448513454855
 97
        0
 75
     0
 76
     1
 98
        1
 10
0.0
 20
0.0
  0
MTEXT
  5
B2
100
AcDbEntity
  8
0
 62
     7
100
AcDbMText
 10
-2.053621
 20
7.00228
 30
0.0
 40
1.647137
 41
0.0
 71
     1
 72
     2
  1
\W0.75;\fMyriad Roman|b0|i0;1.200
  7
STD
210
0.0
220
0.0
230
1.0
 11
1.000001
 21
0.0
 31
0.0
 73
     1
 44
1.0
  0
ENDBLK
  5
C3
100
AcDbEntity
  8
0
100
AcDbBlockEnd
  0
BLOCK
  5
C6
100
AcDbEntity
  8
0
 62
     7
100
AcDbBlockBegin
  2
AI9-BLK2
 70
     0
 10
0.0
 20
0.0
 30
0.0
  3
AI9-BLK2
  1

  0
LINE
  5
D7
100
AcDbEntity
  8
0
 62
     7
100
AcDbLine
 10
7.93595
 20
-3.884862
 30
0.0
 11
-7.93595
 21
-3.884862
 31
0.0
  0
LINE
  5
D6
100
AcDbEntity
  8
0
 62
     7
100
AcDbLine
 10
7.93595
 20
3.884862
 30
0.0
 11
-7.93595
 21
3.884862
 31
0.0
  0
LINE
  5
D5
100
AcDbEntity
  8
0
 62
     7
100
AcDbLine
 10
-6.441812
 20
-2.020032
 30
0.0
 11
-6.441812
 21
-0.641994
 31
0.0
  0
LINE
  5
D4
100
AcDbEntity
  8
0
 62
     7
100
AcDbLine
 10
-6.441812
 20
2.020032
 30
0.0
 11
-6.441812
 21
1.828829
 31
0.0
  0
POLYLINE
  5
CF
100
AcDbEntity
  8
0
 62
     7
100
AcDb2dPolyline
 66
     1
 10
0.0
 20
0.0
 30
0.0
 70
     1
  0
VERTEX
  5
D0
100
AcDbEntity
  8
0
 62
     7
100
AcDbVertex
100
AcDb2dVertex
 10
-6.752559
 20
-2.020032
 30
0.0
  0
VERTEX
  5
D1
100
AcDbEntity
  8
0
 62
     7
100
AcDbVertex
100
AcDb2dVertex
 10
-6.131064
 20
-2.020032
 30
0.0
  0
VERTEX
  5
D2
100
AcDbEntity
  8
0
 62
     7
100
AcDbVertex
100
AcDb2dVertex
 10
-6.441812
 20
-3.884862
 30
0.0
  0
SEQEND
  5
D3
100
AcDbEntity
  8
0
 62
     7
  0
HATCH
  5
CE
100
AcDbEntity
  8
0
 62
     7
100
AcDbHatch
 10
0.0
 20
0.0
 30
0.0
210
0.0
220
0.0
230
1.0
  2
SOLID
 70
     1
 71
     0
 91
        1
 92
        3
 72
     0
 73
     1
 93
        3
 10
-6.7525594075520825
 20
-2.0200317382812498
 10
-6.1310641818576386
 20
-2.0200317382812498
 10
-6.4418117947048605
 20
-3.8848619249131939
 97
        0
 75
     0
 76
     1
 98
        1
 10
0.0
 20
0.0
  0
POLYLINE
  5
C9
100
AcDbEntity
  8
0
 62
     7
100
AcDb2dPolyline
 66
     1
 10
0.0
 20
0.0
 30
0.0
 70
     1
  0
VERTEX
  5
CA
100
AcDbEntity
  8
0
 62
     7
100
AcDbVertex
100
AcDb2dVertex
 10
-6.752559
 20
2.020032
 30
0.0
  0
VERTEX
  5
CB
100
AcDbEntity
  8
0
 62
     7
100
AcDbVertex
100
AcDb2dVertex
 10
-6.131064
 20
2.020032
 30
0.0
  0
VERTEX
  5
CC
100
AcDbEntity
  8
0
 62
     7
100
AcDbVertex
100
AcDb2dVertex
 10
-6.441812
 20
3.884862
 30
0.0
  0
SEQEND
  5
CD
100
AcDbEntity
  8
0
 62
     7
  0
HATCH
  5
C8
100
AcDbEntity
  8
0
 62
     7
100
AcDbHatch
 10
0.0
 20
0.0
 30
0.0
210
0.0
220
0.0
230
1.0
  2
SOLID
 70
     1
 71
     0
 91
        1
 92
        3
 72
     0
 73
     1
 93
        3
 10
-6.4418117947048605
 20
3.8848619249131939
 10
-6.1310641818576386
 20
2.0200317382812498
 10
-6.7525594075520825
 20
2.0200317382812498
 97
        0
 75
     0
 76
     1
 98
        1
 10
0.0
 20
0.0
  0
MTEXT
  5
C7
100
AcDbEntity
  8
0
 62
     7
100
AcDbMText
 10
-7.891508
 20
1.422345
 30
0.0
 40
1.647137
 41
0.0
 71
     1
 72
     2
  1
\W0.75;\fMyriad Roman|b0|i0;.650
  7
STD
210
0.0
220
0.0
230
1.0
 11
1.000001
 21
0.0
 31
0.0
 73
     1
 44
1.0
  0
ENDBLK
  5
D8
100
AcDbEntity
  8
0
100
AcDbBlockEnd
  0
BLOCK
  5
DB
100
AcDbEntity
  8
0
 62
     7
100
AcDbBlockBegin
  2
AI9-BLK3
 70
     0
 10
0.0
 20
0.0
 30
0.0
  3
AI9-BLK3
  1

  0
LINE
  5
EC
100
AcDbEntity
  8
0
 62
     7
100
AcDbLine
 10
2.398475
 20
-2.390724
 30
0.0
 11
-7.081394
 21
-2.390724
 31
0.0
  0
LINE
  5
EB
100
AcDbEntity
  8
0
 62
     7
100
AcDbLine
 10
7.081394
 20
2.390724
 30
0.0
 11
-7.081394
 21
2.390724
 31
0.0
  0
LINE
  5
EA
100
AcDbEntity
  8
0
 62
     7
100
AcDbLine
 10
-5.5876
 20
-4.255554
 30
0.0
 11
-5.5876
 21
-6.120384
 31
0.0
  0
LINE
  5
E9
100
AcDbEntity
  8
0
 62
     7
100
AcDbLine
 10
-5.5876
 20
4.255554
 30
0.0
 11
-5.5876
 21
6.120384
 31
0.0
  0
POLYLINE
  5
E4
100
AcDbEntity
  8
0
 62
     7
100
AcDb2dPolyline
 66
     1
 10
0.0
 20
0.0
 30
0.0
 70
     1
  0
VERTEX
  5
E5
100
AcDbEntity
  8
0
 62
     7
100
AcDbVertex
100
AcDb2dVertex
 10
-5.898003
 20
-4.255554
 30
0.0
  0
VERTEX
  5
E6
100
AcDbEntity
  8
0
 62
     7
100
AcDbVertex
100
AcDb2dVertex
 10
-5.276508
 20
-4.255554
 30
0.0
  0
VERTEX
  5
E7
100
AcDbEntity
  8
0
 62
     7
100
AcDbVertex
100
AcDb2dVertex
 10
-5.5876
 20
-2.390724
 30
0.0
  0
SEQEND
  5
E8
100
AcDbEntity
  8
0
 62
     7
  0
HATCH
  5
E3
100
AcDbEntity
  8
0
 62
     7
100
AcDbHatch
 10
0.0
 20
0.0
 30
0.0
210
0.0
220
0.0
230
1.0
  2
SOLID
 70
     1
 71
     0
 91
        1
 92
        3
 72
     0
 73
     1
 93
        3
 10
-5.5876003689236109
 20
-2.3907240125868054
 10
-5.2765082465277775
 20
-4.25555419921875
 10
-5.8980034722222214
 20
-4.25555419921875
 97
        0
 75
     0
 76
     1
 98
        1
 10
0.0
 20
0.0
  0
POLYLINE
  5
DE
100
AcDbEntity
  8
0
 62
     7
100
AcDb2dPolyline
 66
     1
 10
0.0
 20
0.0
 30
0.0
 70
     1
  0
VERTEX
  5
DF
100
AcDbEntity
  8
0
 62
     7
100
AcDbVertex
100
AcDb2dVertex
 10
-5.898003
 20
4.255554
 30
0.0
  0
VERTEX
  5
E0
100
AcDbEntity
  8
0
 62
     7
100
AcDbVertex
100
AcDb2dVertex
 10
-5.276508
 20
4.255554
 30
0.0
  0
VERTEX
  5
E1
100
AcDbEntity
  8
0
 62
     7
100
AcDbVertex
100
AcDb2dVertex
 10
-5.5876
 20
2.390724
 30
0.0
  0
SEQEND
  5
E2
100
AcDbEntity
  8
0
 62
     7
  0
HATCH
  5
DD
100
AcDbEntity
  8
0
 62
     7
100
AcDbHatch
 10
0.0
 20
0.0
 30
0.0
210
0.0
220
0.0
230
1.0
  2
SOLID
 70
     1
 71
     0
 91
        1
 92
        3
 72
     0
 73
     1
 93
        3
 10
-5.8980034722222214
 20
4.25555419921875
 10
-5.2765082465277775
 20
4.25555419921875
 10
-5.5876003689236109
 20
2.3907240125868054
 97
        0
 75
     0
 76
     1
 98
        1
 10
0.0
 20
0.0
  0
MTEXT
  5
DC
100
AcDbEntity
  8
0
 62
     7
100
AcDbMText
 10
-7.036952
 20
1.090238
 30
0.0
 40
1.647137
 41
0.0
 71
     1
 72
     2
  1
\W0.75;\fMyriad Roman|b0|i0;.400
  7
STD
210
0.0
220
0.0
230
1.0
 11
1.000001
 21
0.0
 31
0.0
 73
     1
 44
1.0
  0
ENDBLK
  5
ED
100
AcDbEntity
  8
0
100
AcDbBlockEnd
  0
BLOCK
  5
2EF
100
AcDbEntity
  8
D1
 62
     7
100
AcDbBlockBegin
  2
AI9-BLK4
 70
     0
 10
0.0
 20
0.0
 30
0.0
  3
AI9-BLK4
  1

  0
POLYLINE
  5
2F6
100
AcDbEntity
  8
D1
 62
     7
100
AcDb2dPolyline
 66
     1
 10
0.0
 20
0.0
 30
0.0
  0
VERTEX
  5
2F7
100
AcDbEntity
  8
D1
 62
     7
100
AcDbVertex
100
AcDb2dVertex
 10
5.673986
 20
-2.304166
 30
0.0
  0
VERTEX
  5
2F8
100
AcDbEntity
  8
D1
 62
     7
100
AcDbVertex
100
AcDb2dVertex
 10
0.000258
 20
3.890977
 30
0.0
  0
VERTEX
  5
2F9
100
AcDbEntity
  8
D1
 62
     7
100
AcDbVertex
100
AcDb2dVertex
 10
-7.126611
 20
3.890977
 30
0.0
  0
SEQEND
  5
2FA
100
AcDbEntity
  8
D1
 62
     7
  0
POLYLINE
  5
2F1
100
AcDbEntity
  8
D1
 62
     7
100
AcDb2dPolyline
 66
     1
 10
0.0
 20
0.0
 30
0.0
 70
     1
  0
VERTEX
  5
2F2
100
AcDbEntity
  8
D1
 62
     7
100
AcDbVertex
100
AcDb2dVertex
 10
7.126783
 20
-3.890977
 30
0.0
  0
VERTEX
  5
2F3
100
AcDbEntity
  8
D1
 62
     7
100
AcDbVertex
100
AcDb2dVertex
 10
5.409403
 20
-2.546356
 30
0.0
  0
VERTEX
  5
2F4
100
AcDbEntity
  8
D1
 62
     7
100
AcDbVertex
100
AcDb2dVertex
 10
5.938225
 20
-2.061976
 30
0.0
  0
SEQEND
  5
2F5
100
AcDbEntity
  8
D1
 62
     7
  0
HATCH
  5
2F0
100
AcDbEntity
  8
D1
 62
     7
100
AcDbHatch
 10
0.0
 20
0.0
 30
0.0
210
0.0
220
0.0
230
1.0
  2
SOLID
 70
     1
 71
     0
 91
        1
 92
        3
 72
     0
 73
     1
 93
        3
 10
7.1267829047309021
 20
-3.8909769694010414
 10
5.4094028049045138
 20
-2.5463562011718746
 10
5.9382249620225691
 20
-2.0619757758246524
 97
        0
 75
     0
 76
     1
 98
        1
 10
0.0
 20
0.0
  0
ENDBLK
  5
2FB
100
AcDbEntity
  8
D1
100
AcDbBlockEnd
  0
BLOCK
  5
301
100
AcDbEntity
  8
D1
 62
     7
100
AcDbBlockBegin
  2
AI9-BLK5
 70
     0
 10
0.0
 20
0.0
 30
0.0
  3
AI9-BLK5
  1

  0
LINE
  5
304
100
AcDbEntity
  8
D1
 62
     7
100
AcDbLine
 10
23.644207
 20
-1.267451
 30
0.0
 11
-29.924444
 21
-1.267451
 31
0.0
  0
LINE
  5
303
100
AcDbEntity
  8
D1
 62
     7
100
AcDbLine
 10
-29.072644
 20
-0.735528
 30
0.0
 11
22.79189
 21
-0.735528
 31
0.0
  0
MTEXT
  5
302
100
AcDbEntity
  8
D1
 62
     7
100
AcDbMText
 10
-28.196384
 20
1.005427
 30
0.0
 40
1.344769
 41
0.0
 71
     1
 72
     2
  1
\fMyriad Roman|b0|i0;INFORMATION ONLY, NOT FOR MANUFACTURING
  7
STD
210
0.0
220
0.0
230
1.0
 11
1.000001
 21
0.0
 31
0.0
 73
     1
 44
1.0
  0
ENDBLK
  5
305
100
AcDbEntity
  8
D1
100
AcDbBlockEnd
  0
BLOCK
  5
308
100
AcDbEntity
  8
D1
 62
     7
100
AcDbBlockBegin
  2
AI9-BLK6
 70
     0
 10
0.0
 20
0.0
 30
0.0
  3
AI9-BLK6
  1

  0
MTEXT
  5
309
100
AcDbEntity
  8
D1
 62
     7
100
AcDbMText
 10
-38.184405
 20
0.963404
 30
0.0
 40
2.241103
 41
0.0
 71
     1
 72
     2
  1
\fVerdana|b0|i0;COPYRIGHT \H2.6893;\fSymbol|b0|i0;Ó\\\H1.8675;\fVerdana|b0|i0; 2008 by THORLABS INC.
  7
STD
210
0.0
220
0.0
230
1.0
 11
1.000001
 21
0.0
 31
0.0
 73
     1
 44
1.0
  0
ENDBLK
  5
30A
100
AcDbEntity
  8
D1
100
AcDbBlockEnd
  0
ENDSEC
  0
SECTION
  2
ENTITIES
  0
SPLINE
  5
368
100
AcDbEntity
  8
SOCKET
 62
     7
100
AcDbSpline
210
0.0
220
0.0
230
1.0
 70
     8
 71
     3
 72
     8
 73
     4
 74
     0
 42
0.00000001
 43
0.00000001
 40
0.0
 40
0.0
 40
0.0
 40
0.0
 40
1.0
 40
1.0
 40
1.0
 40
1.0
 10
73.992899576822907
 20
142.13189290364582
 30
0.0
 10
73.658380805121524
 20
142.22887234157986
 30
0.0
 10
73.30319146050347
 20
142.22887234157986
 30
0.0
 10
72.968500434027774
 20
142.13223741319445
 30
0.0
  0
CIRCLE
  5
367
100
AcDbEntity
  8
SOCKET
 62
     7
100
AcDbCircle
 10
73.951214
 20
141.178118
 30
0.0
 40
0.246669
  0
SPLINE
  5
366
100
AcDbEntity
  8
SOCKET
 62
     7
100
AcDbSpline
210
0.0
220
0.0
230
1.0
 70
     8
 71
     3
 72
     8
 73
     4
 74
     0
 42
0.00000001
 43
0.00000001
 40
0.0
 40
0.0
 40
0.0
 40
0.0
 40
1.0
 40
1.0
 40
1.0
 40
1.0
 10
72.504273817274296
 20
139.03819715711805
 30
0.0
 10
72.944040256076377
 20
138.71435818142359
 30
0.0
 10
73.515581597222209
 20
138.62960883246527
 30
0.0
 10
74.0299343532986
 20
138.81219889322915
 30
0.0
  0
CIRCLE
  5
365
100
AcDbEntity
  8
SOCKET
 62
     7
100
AcDbCircle
 10
73.951214
 20
139.546349
 30
0.0
 40
0.246669
  0
CIRCLE
  5
364
100
AcDbEntity
  8
SOCKET
 62
     7
100
AcDbCircle
 10
73.480183
 20
140.36232
 30
0.0
 40
1.435485
  0
CIRCLE
  5
363
100
AcDbEntity
  8
SOCKET
 62
     7
100
AcDbCircle
 10
73.480097
 20
140.36232
 30
0.0
 40
2.038463
  0
CIRCLE
  5
362
100
AcDbEntity
  8
SOCKET
 62
     7
100
AcDbCircle
 10
73.480183
 20
140.36232
 30
0.0
 40
2.481244
  0
CIRCLE
  5
361
100
AcDbEntity
  8
SOCKET
 62
     7
100
AcDbCircle
 10
72.538122
 20
140.36232
 30
0.0
 40
0.246755
  0
SPLINE
  5
360
100
AcDbEntity
  8
SOCKET
 62
     7
100
AcDbSpline
210
0.0
220
0.0
230
1.0
 70
     8
 71
     3
 72
     8
 73
     4
 74
     0
 42
0.00000001
 43
0.00000001
 40
0.0
 40
0.0
 40
0.0
 40
0.0
 40
1.0
 40
1.0
 40
1.0
 40
1.0
 10
72.242446560329853
 20
141.44545762803818
 30
0.0
 10
71.706734212239581
 20
140.83378092447916
 30
0.0
 10
71.69863823784722
 20
139.92272542317707
 30
0.0
 10
72.223154025607627
 20
139.30140245225692
 30
0.0
  0
CIRCLE
  5
35F
100
AcDbEntity
  8
SOCKET
 62
     7
100
AcDbCircle
 10
73.009153
 20
139.546349
 30
0.0
 40
0.246669
  0
LINE
  5
35E
100
AcDbEntity
  8
SOCKET
 62
     7
100
AcDbLine
 10
72.504274
 20
139.038197
 30
0.0
 11
72.387313
 21
138.879034
 31
0.0
  0
LINE
  5
35D
100
AcDbEntity
  8
SOCKET
 62
     7
100
AcDbLine
 10
72.223154
 20
139.301402
 30
0.0
 11
72.072087
 21
139.173934
 31
0.0
  0
SPLINE
  5
35C
100
AcDbEntity
  8
SOCKET
 62
     7
100
AcDbSpline
210
0.0
220
0.0
230
1.0
 70
     8
 71
     3
 72
     8
 73
     4
 74
     0
 42
0.00000001
 43
0.00000001
 40
0.0
 40
0.0
 40
0.0
 40
0.0
 40
1.0
 40
1.0
 40
1.0
 40
1.0
 10
72.072086588541666
 20
139.17393391927081
 30
0.0
 10
72.165276421440964
 20
139.06369086371527
 30
0.0
 10
72.271040852864573
 20
138.96447211371526
 30
0.0
 10
72.387312825520823
 20
138.87903374565971
 30
0.0
  0
SPLINE
  5
35B
100
AcDbEntity
  8
SOCKET
 62
     7
100
AcDbSpline
210
0.0
220
0.0
230
1.0
 70
     8
 71
     3
 72
     8
 73
     4
 74
     0
 42
0.00000001
 43
0.00000001
 40
0.0
 40
0.0
 40
0.0
 40
0.0
 40
1.0
 40
1.0
 40
1.0
 40
1.0
 10
72.405055067274304
 20
141.8585245768229
 30
0.0
 10
72.290850151909709
 20
141.77653130425347
 30
0.0
 10
72.186463758680546
 20
141.6814466688368
 30
0.0
 10
72.093618435329859
 20
141.57568223741319
 30
0.0
  0
CIRCLE
  5
35A
100
AcDbEntity
  8
SOCKET
 62
     7
100
AcDbCircle
 10
73.009153
 20
141.178118
 30
0.0
 40
0.246669
  0
LINE
  5
359
100
AcDbEntity
  8
SOCKET
 62
     7
100
AcDbLine
 10
72.242447
 20
141.445458
 30
0.0
 11
72.093618
 21
141.575682
 31
0.0
  0
SPLINE
  5
358
100
AcDbEntity
  8
SOCKET
 62
     7
100
AcDbSpline
210
0.0
220
0.0
230
1.0
 70
     8
 71
     3
 72
     8
 73
     4
 74
     0
 42
0.00000001
 43
0.00000001
 40
0.0
 40
0.0
 40
0.0
 40
0.0
 40
1.0
 40
1.0
 40
1.0
 40
1.0
 10
73.023277452256934
 20
141.94241265190971
 30
0.0
 10
72.843098958333329
 20
141.89021945529512
 30
0.0
 10
72.67291124131944
 20
141.80770941840277
 30
0.0
 10
72.52029351128472
 20
141.69815538194445
 30
0.0
  0
LINE
  5
357
100
AcDbEntity
  8
SOCKET
 62
     7
100
AcDbLine
 10
72.520294
 20
141.698155
 30
0.0
 11
72.405055
 21
141.858525
 31
0.0
  0
LINE
  5
356
100
AcDbEntity
  8
SOCKET
 62
     7
100
AcDbLine
 10
73.023277
 20
141.942413
 30
0.0
 11
72.9685
 21
142.132237
 31
0.0
  0
CIRCLE
  5
355
100
AcDbEntity
  8
SOCKET
 62
     7
100
AcDbCircle
 10
74.422158
 20
140.36232
 30
0.0
 40
0.246669
  0
SPLINE
  5
354
100
AcDbEntity
  8
SOCKET
 62
     7
100
AcDbSpline
210
0.0
220
0.0
230
1.0
 70
     8
 71
     3
 72
    11
 73
     7
 74
     0
 42
0.00000001
 43
0.00000001
 40
0.0
 40
0.0
 40
0.0
 40
0.0
 40
1.0
 40
1.0
 40
1.0
 40
2.0
 40
2.0
 40
2.0
 40
2.0
 10
74.76098361545138
 20
139.33034125434025
 30
0.0
 10
75.330802408854154
 20
140.03779161241317
 30
0.0
 10
75.219353569878464
 20
141.07338731553818
 30
0.0
 10
74.512075466579859
 20
141.64320610894097
 30
0.0
 10
74.34240451388888
 20
141.77980414496525
 30
0.0
 10
74.147239854600684
 20
141.88143446180555
 30
0.0
 10
73.937778049045136
 20
141.94206814236111
 30
0.0
  0
SPLINE
  5
353
100
AcDbEntity
  8
SOCKET
 62
     7
100
AcDbSpline
210
0.0
220
0.0
230
1.0
 70
     8
 71
     3
 72
     8
 73
     4
 74
     0
 42
0.00000001
 43
0.00000001
 40
0.0
 40
0.0
 40
0.0
 40
0.0
 40
1.0
 40
1.0
 40
1.0
 40
1.0
 10
74.096080186631937
 20
138.62581922743055
 30
0.0
 10
74.224409993489573
 20
138.67163899739583
 30
0.0
 10
74.34722764756944
 20
138.73123914930554
 30
0.0
 10
74.462638346354154
 20
138.80393066406248
 30
0.0
  0
LINE
  5
352
100
AcDbEntity
  8
SOCKET
 62
     7
100
AcDbLine
 10
74.029934
 20
138.812199
 30
0.0
 11
74.09608
 21
138.625819
 31
0.0
  0
SPLINE
  5
351
100
AcDbEntity
  8
SOCKET
 62
     7
100
AcDbSpline
210
0.0
220
0.0
230
1.0
 70
     8
 71
     3
 72
     8
 73
     4
 74
     0
 42
0.00000001
 43
0.00000001
 40
0.0
 40
0.0
 40
0.0
 40
0.0
 40
1.0
 40
1.0
 40
1.0
 40
1.0
 10
74.630586751302076
 20
138.92347547743054
 30
0.0
 10
74.73531765407985
 20
139.00719129774305
 30
0.0
 10
74.83074679904513
 20
139.10193142361109
 30
0.0
 10
74.914807128906247
 20
139.20631781684025
 30
0.0
  0
LINE
  5
350
100
AcDbEntity
  8
SOCKET
 62
     7
100
AcDbLine
 10
74.357218
 20
138.971018
 30
0.0
 11
74.462638
 21
138.803931
 31
0.0
  0
LINE
  5
34F
100
AcDbEntity
  8
SOCKET
 62
     7
100
AcDbLine
 10
74.507252
 20
139.077816
 30
0.0
 11
74.630587
 21
138.923475
 31
0.0
  0
SPLINE
  5
34E
100
AcDbEntity
  8
SOCKET
 62
     7
100
AcDbSpline
210
0.0
220
0.0
230
1.0
 70
     8
 71
     3
 72
     8
 73
     4
 74
     0
 42
0.00000001
 43
0.00000001
 40
0.0
 40
0.0
 40
0.0
 40
0.0
 40
1.0
 40
1.0
 40
1.0
 40
1.0
 10
74.357218424479157
 20
138.97101779513886
 30
0.0
 10
74.40923936631944
 20
139.00374620225693
 30
0.0
 10
74.459193250868054
 20
139.03923068576387
 30
0.0
 10
74.507252332899299
 20
139.07781575520832
 30
0.0
  0
LINE
  5
34D
100
AcDbEntity
  8
SOCKET
 62
     7
100
AcDbLine
 10
74.760984
 20
139.330341
 30
0.0
 11
74.914807
 21
139.206318
 31
0.0
  0
LINE
  5
34C
100
AcDbEntity
  8
SOCKET
 62
     7
100
AcDbLine
 10
73.937778
 20
141.942068
 30
0.0
 11
73.9929
 21
142.131893
 31
0.0
  0
SPLINE
  5
34B
100
AcDbEntity
  8
SOCKET
 62
     7
100
AcDbSpline
210
0.0
220
0.0
230
1.0
 70
     8
 71
     3
 72
    11
 73
     7
 74
     0
 42
0.00000001
 43
0.00000001
 40
0.0
 40
0.0
 40
0.0
 40
0.0
 40
1.0
 40
1.0
 40
1.0
 40
2.0
 40
2.0
 40
2.0
 40
2.0
 10
38.532014973958333
 20
174.16749131944442
 30
0.0
 10
41.38145345052083
 20
177.70439860026039
 30
0.0
 10
40.824209255642359
 20
182.88151584201387
 30
0.0
 10
37.287301974826384
 20
185.73129882812498
 30
0.0
 10
36.438947211371527
 20
186.41446126302083
 30
0.0
 10
35.463296169704861
 20
186.92261284722221
 30
0.0
 10
34.41702067057291
 20
187.22595350477428
 30
0.0
  0
CIRCLE
  5
34A
100
AcDbEntity
  8
SOCKET
 62
     7
100
AcDbCircle
 10
32.127755
 20
179.327039
 30
0.0
 40
12.406306
  0
CIRCLE
  5
349
100
AcDbEntity
  8
SOCKET
 62
     7
100
AcDbCircle
 10
32.127841
 20
179.327039
 30
0.0
 40
10.192401
  0
CIRCLE
  5
348
100
AcDbEntity
  8
SOCKET
 62
     7
100
AcDbCircle
 10
29.772601
 20
175.247701
 30
0.0
 40
1.233603
  0
SPLINE
  5
347
100
AcDbEntity
  8
SOCKET
 62
     7
100
AcDbSpline
210
0.0
220
0.0
230
1.0
 70
     8
 71
     3
 72
     8
 73
     4
 74
     0
 42
0.00000001
 43
0.00000001
 40
0.0
 40
0.0
 40
0.0
 40
0.0
 40
1.0
 40
1.0
 40
1.0
 40
1.0
 10
25.939329698350694
 20
184.74307318793402
 30
0.0
 10
23.261973741319441
 20
181.68434516059025
 30
0.0
 10
23.221321614583331
 20
177.128034125434
 30
0.0
 10
25.843556043836802
 20
174.02193603515624
 30
0.0
  0
CIRCLE
  5
346
100
AcDbEntity
  8
SOCKET
 62
     7
100
AcDbCircle
 10
32.127755
 20
179.327039
 30
0.0
 40
7.17734
  0
CIRCLE
  5
345
100
AcDbEntity
  8
SOCKET
 62
     7
100
AcDbCircle
 10
34.482908
 20
175.247701
 30
0.0
 40
1.233603
  0
SPLINE
  5
344
100
AcDbEntity
  8
SOCKET
 62
     7
100
AcDbSpline
210
0.0
220
0.0
230
1.0
 70
     8
 71
     3
 72
     8
 73
     4
 74
     0
 42
0.00000001
 43
0.00000001
 40
0.0
 40
0.0
 40
0.0
 40
0.0
 40
1.0
 40
1.0
 40
1.0
 40
1.0
 10
27.249327256944444
 20
172.70608181423609
 30
0.0
 10
29.446953667534718
 20
171.08688693576389
 30
0.0
 10
32.304660373263886
 20
170.66348470052083
 30
0.0
 10
34.877285427517357
 20
171.57609049479166
 30
0.0
  0
SPLINE
  5
343
100
AcDbEntity
  8
SOCKET
 62
     7
100
AcDbSpline
210
0.0
220
0.0
230
1.0
 70
     8
 71
     3
 72
     8
 73
     4
 74
     0
 42
0.00000001
 43
0.00000001
 40
0.0
 40
0.0
 40
0.0
 40
0.0
 40
1.0
 40
1.0
 40
1.0
 40
1.0
 10
25.088563368055553
 20
173.38459337022567
 30
0.0
 10
25.553995768229164
 20
172.8333780924479
 30
0.0
 10
26.08247341579861
 20
172.33866238064235
 30
0.0
 10
26.663316514756943
 20
171.91078152126735
 30
0.0
  0
LINE
  5
342
100
AcDbEntity
  8
SOCKET
 62
     7
100
AcDbLine
 10
25.843556
 20
174.021936
 30
0.0
 11
25.088563
 21
173.384593
 31
0.0
  0
LINE
  5
341
100
AcDbEntity
  8
SOCKET
 62
     7
100
AcDbLine
 10
27.249327
 20
172.706082
 30
0.0
 11
26.663317
 21
171.910782
 31
0.0
  0
LINE
  5
340
100
AcDbEntity
  8
SOCKET
 62
     7
100
AcDbLine
 10
38.532015
 20
174.167491
 30
0.0
 11
39.301305
 21
173.547719
 31
0.0
  0
SPLINE
  5
33F
100
AcDbEntity
  8
SOCKET
 62
     7
100
AcDbSpline
210
0.0
220
0.0
230
1.0
 70
     8
 71
     3
 72
     8
 73
     4
 74
     0
 42
0.00000001
 43
0.00000001
 40
0.0
 40
0.0
 40
0.0
 40
0.0
 40
1.0
 40
1.0
 40
1.0
 40
1.0
 10
36.513361273871524
 20
172.36984049479165
 30
0.0
 10
36.77294921875
 20
172.53348253038192
 30
0.0
 10
37.023235405815967
 20
172.71159396701387
 30
0.0
 10
37.2630140516493
 20
172.90314127604165
 30
0.0
  0
LINE
  5
33E
100
AcDbEntity
  8
SOCKET
 62
     7
100
AcDbLine
 10
37.263014
 20
172.903141
 30
0.0
 11
37.879686
 21
172.13144
 31
0.0
  0
LINE
  5
33D
100
AcDbEntity
  8
SOCKET
 62
     7
100
AcDbLine
 10
36.513361
 20
172.36984
 30
0.0
 11
37.040289
 21
171.53406
 31
0.0
  0
SPLINE
  5
33C
100
AcDbEntity
  8
SOCKET
 62
     7
100
AcDbSpline
210
0.0
220
0.0
230
1.0
 70
     8
 71
     3
 72
     8
 73
     4
 74
     0
 42
0.00000001
 43
0.00000001
 40
0.0
 40
0.0
 40
0.0
 40
0.0
 40
1.0
 40
1.0
 40
1.0
 40
1.0
 10
37.879686143663193
 20
172.13143988715277
 30
0.0
 10
38.403857421874996
 20
172.55036349826386
 30
0.0
 10
38.880486382378471
 20
173.02526991102428
 30
0.0
 10
39.301304796006939
 20
173.54771864149305
 30
0.0
  0
LINE
  5
33B
100
AcDbEntity
  8
SOCKET
 62
     7
100
AcDbLine
 10
34.877285
 20
171.57609
 30
0.0
 11
35.207498
 21
170.645053
 31
0.0
  0
SPLINE
  5
33A
100
AcDbEntity
  8
SOCKET
 62
     7
100
AcDbSpline
210
0.0
220
0.0
230
1.0
 70
     8
 71
     3
 72
     8
 73
     4
 74
     0
 42
0.00000001
 43
0.00000001
 40
0.0
 40
0.0
 40
0.0
 40
0.0
 40
1.0
 40
1.0
 40
1.0
 40
1.0
 10
35.207497829861111
 20
170.64505343967014
 30
0.0
 10
35.849491373697916
 20
170.87277425130208
 30
0.0
 10
36.464096408420133
 20
171.17094726562499
 30
0.0
 10
37.040288628472219
 20
171.53406032986109
 30
0.0
  0
CIRCLE
  5
339
100
AcDbEntity
  8
SOCKET
 62
     7
100
AcDbCircle
 10
29.772601
 20
183.406204
 30
0.0
 40
1.233603
  0
SPLINE
  5
338
100
AcDbEntity
  8
SOCKET
 62
     7
100
AcDbSpline
210
0.0
220
0.0
230
1.0
 70
     8
 71
     3
 72
     8
 73
     4
 74
     0
 42
0.00000001
 43
0.00000001
 40
0.0
 40
0.0
 40
0.0
 40
0.0
 40
1.0
 40
1.0
 40
1.0
 40
1.0
 10
34.69193929036458
 20
188.1747328016493
 30
0.0
 10
33.019173177083331
 20
188.65962999131943
 30
0.0
 10
31.243054199218747
 20
188.66031901041666
 30
0.0
 10
29.569771321614581
 20
188.17645534939234
 30
0.0
  0
LINE
  5
337
100
AcDbEntity
  8
SOCKET
 62
     7
100
AcDbLine
 10
29.844001
 20
187.227504
 30
0.0
 11
29.569771
 21
188.176455
 31
0.0
  0
LINE
  5
336
100
AcDbEntity
  8
SOCKET
 62
     7
100
AcDbLine
 10
27.328564
 20
186.005528
 30
0.0
 11
26.7522
 21
186.807547
 31
0.0
  0
SPLINE
  5
335
100
AcDbEntity
  8
SOCKET
 62
     7
100
AcDbSpline
210
0.0
220
0.0
230
1.0
 70
     8
 71
     3
 72
     8
 73
     4
 74
     0
 42
0.00000001
 43
0.00000001
 40
0.0
 40
0.0
 40
0.0
 40
0.0
 40
1.0
 40
1.0
 40
1.0
 40
1.0
 10
29.844000922309025
 20
187.22750379774303
 30
0.0
 10
28.941902669270831
 20
186.96671006944442
 30
0.0
 10
28.091136338975691
 20
186.5532986111111
 30
0.0
 10
27.328564453124997
 20
186.00552842881942
 30
0.0
  0
LINE
  5
334
100
AcDbEntity
  8
SOCKET
 62
     7
100
AcDbLine
 10
25.93933
 20
184.743073
 30
0.0
 11
25.195878
 21
185.393679
 31
0.0
  0
SPLINE
  5
333
100
AcDbEntity
  8
SOCKET
 62
     7
100
AcDbSpline
210
0.0
220
0.0
230
1.0
 70
     8
 71
     3
 72
     8
 73
     4
 74
     0
 42
0.00000001
 43
0.00000001
 40
0.0
 40
0.0
 40
0.0
 40
0.0
 40
1.0
 40
1.0
 40
1.0
 40
1.0
 10
26.752199978298609
 20
186.80754665798608
 30
0.0
 10
26.181003146701386
 20
186.39723578559025
 30
0.0
 10
25.658898925781248
 20
185.92301839192706
 30
0.0
 10
25.195878092447913
 20
185.39367947048609
 30
0.0
  0
CIRCLE
  5
332
100
AcDbEntity
  8
SOCKET
 62
     7
100
AcDbCircle
 10
27.417534
 20
179.327039
 30
0.0
 40
1.233603
  0
LINE
  5
331
100
AcDbEntity
  8
SOCKET
 62
     7
100
AcDbLine
 10
34.417021
 20
187.225954
 30
0.0
 11
34.691939
 21
188.174733
 31
0.0
  0
CIRCLE
  5
330
100
AcDbEntity
  8
SOCKET
 62
     7
100
AcDbCircle
 10
36.837975
 20
179.327039
 30
0.0
 40
1.233603
  0
CIRCLE
  5
32F
100
AcDbEntity
  8
SOCKET
 62
     7
100
AcDbCircle
 10
34.482908
 20
183.406204
 30
0.0
 40
1.233603
  0
MTEXT
  5
319
100
AcDbEntity
  8
D1
 62
     7
100
AcDbMText
 10
188.164225
 20
75.593262
 30
0.0
 40
1.032783
 41
0.0
 71
     1
 72
     2
  1
\fMyriad Roman|b0|i0;PDQ30C
  7
STD
210
0.0
220
0.0
230
1.0
 11
1.000001
 21
0.0
 31
0.0
 73
     1
 44
1.0
  0
MTEXT
  5
318
100
AcDbEntity
  8
D1
 62
     7
100
AcDbMText
 10
173.876725
 20
93.208725
 30
0.0
 40
1.032783
 41
0.0
 71
     1
 72
     2
  1
\fMyriad Roman|b0|i0;PDQ30C Quadrant Detector Assembly
  7
STD
210
0.0
220
0.0
230
1.0
 11
1.000001
 21
0.0
 31
0.0
 73
     1
 44
1.0
  0
MTEXT
  5
317
100
AcDbEntity
  8
D1
 62
     7
100
AcDbMText
 10
169.143853
 20
79.208201
 30
0.0
 40
1.032783
 41
0.0
 71
     1
 72
     2
  1
\fMyriad Roman|b0|i0;12/16/08
  7
STD
210
0.0
220
0.0
230
1.0
 11
1.000001
 21
0.0
 31
0.0
 73
     1
 44
1.0
  0
MTEXT
  5
316
100
AcDbEntity
  8
D1
 62
     7
100
AcDbMText
 10
172.262354
 20
85.630204
 30
0.0
 40
1.032783
 41
0.0
 71
     1
 72
     2
  1
\fMyriad Roman|b0|i0;RDS
  7
STD
210
0.0
220
0.0
230
1.0
 11
1.000001
 21
0.0
 31
0.0
 73
     1
 44
1.0
  0
MTEXT
  5
315
100
AcDbEntity
  8
D1
 62
     7
100
AcDbMText
 10
179.079508
 20
79.208201
 30
0.0
 40
1.032783
 41
0.0
 71
     1
 72
     2
  1
\fMyriad Roman|b0|i0;B
  7
STD
210
0.0
220
0.0
230
1.0
 11
1.000001
 21
0.0
 31
0.0
 73
     1
 44
1.0
  0
MTEXT
  5
314
100
AcDbEntity
  8
D1
 62
     7
100
AcDbMText
 10
182.494976
 20
79.343938
 30
0.0
 40
1.032783
 41
0.0
 71
     1
 72
     2
  1
\fMyriad Roman|b0|i0;B
  7
STD
210
0.0
220
0.0
230
1.0
 11
1.000001
 21
0.0
 31
0.0
 73
     1
 44
1.0
  0
MTEXT
  5
313
100
AcDbEntity
  8
D1
 62
     7
100
AcDbMText
 10
187.418362
 20
79.208201
 30
0.0
 40
1.032783
 41
0.0
 71
     1
 72
     2
  1
\fMyriad Roman|b0|i0;1
  7
STD
210
0.0
220
0.0
230
1.0
 11
1.000001
 21
0.0
 31
0.0
 73
     1
 44
1.0
  0
MTEXT
  5
312
100
AcDbEntity
  8
D1
 62
     7
100
AcDbMText
 10
184.857278
 20
85.630204
 30
0.0
 40
1.032783
 41
0.0
 71
     1
 72
     2
  1
\fMyriad Roman|b0|i0;RDS
  7
STD
210
0.0
220
0.0
230
1.0
 11
1.000001
 21
0.0
 31
0.0
 73
     1
 44
1.0
  0
MTEXT
  5
311
100
AcDbEntity
  8
D1
 62
     7
100
AcDbMText
 10
191.635503
 20
79.208201
 30
0.0
 40
1.032783
 41
0.0
 71
     1
 72
     2
  1
\fMyriad Roman|b0|i0;1
  7
STD
210
0.0
220
0.0
230
1.0
 11
1.000001
 21
0.0
 31
0.0
 73
     1
 44
1.0
  0
MTEXT
  5
310
100
AcDbEntity
  8
D1
 62
     7
100
AcDbMText
 10
197.538675
 20
79.208201
 30
0.0
 40
1.032783
 41
0.0
 71
     1
 72
     2
  1
\fMyriad Roman|b0|i0;1" = 1"
  7
STD
210
0.0
220
0.0
230
1.0
 11
1.000001
 21
0.0
 31
0.0
 73
     1
 44
1.0
  0
MTEXT
  5
30F
100
AcDbEntity
  8
D1
 62
     7
100
AcDbMText
 10
196.136176
 20
85.630204
 30
0.0
 40
1.032783
 41
0.0
 71
     1
 72
     2
  1
\fMyriad Roman|b0|i0;RDS
  7
STD
210
0.0
220
0.0
230
1.0
 11
1.000001
 21
0.0
 31
0.0
 73
     1
 44
1.0
  0
MTEXT
  5
30E
100
AcDbEntity
  8
D1
 62
     7
100
AcDbMText
 10
173.876725
 20
102.224884
 30
0.0
 40
1.032783
 41
0.0
 71
     1
 72
     2
  1
\fMyriad Roman|b0|i0;ENGINEERING SUPPORT DRAWING
  7
STD
210
0.0
220
0.0
230
1.0
 11
1.000001
 21
0.0
 31
0.0
 73
     1
 44
1.0
  0
MTEXT
  5
30D
100
AcDbEntity
  8
D1
 62
     7
100
AcDbMText
 10
12.281249
 20
93.595912
 30
0.0
 40
1.195351
 41
0.0
 71
     1
 72
     2
  1
\fArial|b0|i0;WITH EACH UNIT.
  7
STD
210
0.0
220
0.0
230
1.0
 11
1.000001
 21
0.0
 31
0.0
 73
     1
 44
1.0
  0
MTEXT
  5
30C
100
AcDbEntity
  8
D1
 62
     7
100
AcDbMText
 10
12.281249
 20
95.537568
 30
0.0
 40
1.195351
 41
0.0
 71
     1
 72
     2
  1
\fArial|b0|i0;1)  #8-32 TO M4 MOUNTING ADAPTOR INCLUDED
  7
STD
210
0.0
220
0.0
230
1.0
 11
1.000001
 21
0.0
 31
0.0
 73
     1
 44
1.0
  0
MTEXT
  5
30B
100
AcDbEntity
  8
D1
 62
     7
100
AcDbMText
 10
12.281249
 20
99.420191
 30
0.0
 40
1.195351
 41
0.0
 71
     1
 72
     2
  1
\fArial|b0|i0;Notes:
  7
STD
210
0.0
220
0.0
230
1.0
 11
1.000001
 21
0.0
 31
0.0
 73
     1
 44
1.0
  0
INSERT
  5
307
100
AcDbEntity
  8
D1
 62
     7
100
AcDbBlockReference
  2
AI9-BLK6
 10
44.573334
 20
200.365978
 30
0.0
  0
INSERT
  5
300
100
AcDbEntity
  8
D1
 62
     7
100
AcDbBlockReference
  2
AI9-BLK5
 10
112.751946
 20
85.82353
 30
0.0
  0
LINE
  5
2FE
100
AcDbEntity
  8
D1
 62
     7
100
AcDbLine
 10
126.087739
 20
138.868009
 30
0.0
 11
110.015335
 21
138.868009
 31
0.0
  0
LINE
  5
2FD
100
AcDbEntity
  8
D1
 62
     7
100
AcDbLine
 10
126.087739
 20
141.856458
 30
0.0
 11
113.091805
 21
141.856458
 31
0.0
  0
SPLINE
  5
2FC
100
AcDbEntity
  8
D1
 62
     7
100
AcDbSpline
210
0.0
220
0.0
230
1.0
 70
     8
 71
     3
 72
    14
 73
    10
 74
     0
 42
0.00000001
 43
0.00000001
 40
0.0
 40
0.0
 40
0.0
 40
0.0
 40
1.0
 40
1.0
 40
1.0
 40
2.0
 40
2.0
 40
2.0
 40
3.0
 40
3.0
 40
3.0
 40
3.0
 10
113.09180501302082
 20
141.85645751953123
 30
0.0
 10
113.07251247829861
 20
141.64871826171873
 30
0.0
 10
112.75142957899304
 20
140.9686564127604
 30
0.0
 10
112.4120876736111
 20
140.57677680121526
 30
0.0
 10
111.75131835937499
 20
139.81368815104165
 30
0.0
 10
111.01889105902777
 20
140.14097222222222
 30
0.0
 10
110.57447374131944
 20
139.81162109374998
 30
0.0
 10
110.32952745225694
 20
139.62989230685761
 30
0.0
 10
110.17243109809027
 20
139.24903700086804
 30
0.0
 10
110.0153347439236
 20
138.86800944010415
 30
0.0
  0
INSERT
  5
2EE
100
AcDbEntity
  8
D1
 62
     7
100
AcDbBlockReference
  2
AI9-BLK4
 10
105.765551
 20
147.692019
 30
0.0
  0
MTEXT
  5
2EC
100
AcDbEntity
  8
D1
 62
     7
100
AcDbMText
 10
91.897061
 20
152.664658
 30
0.0
 40
1.195351
 41
0.0
 71
     1
 72
     2
  1
\fMyriad Roman|b0|i0;5" LONG
  7
STD
210
0.0
220
0.0
230
1.0
 11
1.000001
 21
0.0
 31
0.0
 73
     1
 44
1.0
  0
MTEXT
  5
2EB
100
AcDbEntity
  8
D1
 62
     7
100
AcDbMText
 10
93.228935
 20
154.60597
 30
0.0
 40
1.195351
 41
0.0
 71
     1
 72
     2
  1
\fMyriad Roman|b0|i0;CABLE
  7
STD
210
0.0
220
0.0
230
1.0
 11
1.000001
 21
0.0
 31
0.0
 73
     1
 44
1.0
  0
LINE
  5
2EA
100
AcDbEntity
  8
D1
 62
     7
100
AcDbLine
 10
92.302893
 20
143.022106
 30
0.0
 11
89.673252
 21
143.022106
 31
0.0
  0
LINE
  5
2E9
100
AcDbEntity
  8
D1
 62
     7
100
AcDbLine
 10
80.46899
 20
142.842616
 30
0.0
 11
80.46899
 21
137.882023
 31
0.0
  0
LINE
  5
2E8
100
AcDbEntity
  8
D1
 62
     7
100
AcDbLine
 10
82.799942
 20
137.702534
 30
0.0
 11
87.282528
 21
137.702534
 31
0.0
  0
LINE
  5
2E7
100
AcDbEntity
  8
D1
 62
     7
100
AcDbLine
 10
96.725879
 20
138.718837
 30
0.0
 11
96.725879
 21
142.005975
 31
0.0
  0
LINE
  5
2E6
100
AcDbEntity
  8
D1
 62
     7
100
AcDbLine
 10
87.282528
 20
143.022106
 30
0.0
 11
87.282528
 21
137.702534
 31
0.0
  0
LINE
  5
2E5
100
AcDbEntity
  8
D1
 62
     7
100
AcDbLine
 10
88.477804
 20
142.603526
 30
0.0
 11
88.477804
 21
138.121113
 31
0.0
  0
LINE
  5
2E4
100
AcDbEntity
  8
D1
 62
     7
100
AcDbLine
 10
89.673252
 20
143.022106
 30
0.0
 11
89.673252
 21
137.702534
 31
0.0
  0
LINE
  5
2E3
100
AcDbEntity
  8
D1
 62
     7
100
AcDbLine
 10
92.302893
 20
143.022106
 30
0.0
 11
92.302893
 21
137.702534
 31
0.0
  0
LINE
  5
2E2
100
AcDbEntity
  8
D1
 62
     7
100
AcDbLine
 10
88.477804
 20
142.603526
 30
0.0
 11
87.282528
 21
142.603526
 31
0.0
  0
LINE
  5
2E1
100
AcDbEntity
  8
D1
 62
     7
100
AcDbLine
 10
88.477804
 20
138.121113
 30
0.0
 11
87.282528
 21
138.121113
 31
0.0
  0
LINE
  5
2E0
100
AcDbEntity
  8
D1
 62
     7
100
AcDbLine
 10
92.302893
 20
142.603526
 30
0.0
 11
96.725879
 21
142.005975
 31
0.0
  0
LINE
  5
2DF
100
AcDbEntity
  8
D1
 62
     7
100
AcDbLine
 10
92.302893
 20
138.121113
 30
0.0
 11
96.725879
 21
138.718837
 31
0.0
  0
LINE
  5
2DE
100
AcDbEntity
  8
D1
 62
     7
100
AcDbLine
 10
89.673252
 20
143.022106
 30
0.0
 11
88.477804
 21
142.603526
 31
0.0
  0
LINE
  5
2DD
100
AcDbEntity
  8
D1
 62
     7
100
AcDbLine
 10
89.673252
 20
137.702534
 30
0.0
 11
88.477804
 21
138.121113
 31
0.0
  0
LINE
  5
2DC
100
AcDbEntity
  8
D1
 62
     7
100
AcDbLine
 10
87.282528
 20
143.022106
 30
0.0
 11
82.799942
 21
143.022106
 31
0.0
  0
LINE
  5
2DB
100
AcDbEntity
  8
D1
 62
     7
100
AcDbLine
 10
89.673252
 20
137.702534
 30
0.0
 11
92.302893
 21
137.702534
 31
0.0
  0
LINE
  5
2DA
100
AcDbEntity
  8
D1
 62
     7
100
AcDbLine
 10
82.799942
 20
143.022106
 30
0.0
 11
82.799942
 21
137.702534
 31
0.0
  0
LINE
  5
2D9
100
AcDbEntity
  8
D1
 62
     7
100
AcDbLine
 10
82.799942
 20
142.842616
 30
0.0
 11
80.46899
 21
142.842616
 31
0.0
  0
LINE
  5
2D8
100
AcDbEntity
  8
D1
 62
     7
100
AcDbLine
 10
80.46899
 20
137.882023
 30
0.0
 11
82.799942
 21
137.882023
 31
0.0
  0
POLYLINE
  5
2D2
100
AcDbEntity
  8
D1
 62
     7
100
AcDb2dPolyline
 66
     1
 10
0.0
 20
0.0
 30
0.0
 70
     1
  0
VERTEX
  5
2D3
100
AcDbEntity
  8
D1
 62
     7
100
AcDbVertex
100
AcDb2dVertex
 10
87.282528
 20
137.702534
 30
0.0
  0
VERTEX
  5
2D4
100
AcDbEntity
  8
D1
 62
     7
100
AcDbVertex
100
AcDb2dVertex
 10
82.799942
 20
137.702534
 30
0.0
  0
VERTEX
  5
2D5
100
AcDbEntity
  8
D1
 62
     7
100
AcDbVertex
100
AcDb2dVertex
 10
82.799942
 20
143.022106
 30
0.0
  0
VERTEX
  5
2D6
100
AcDbEntity
  8
D1
 62
     7
100
AcDbVertex
100
AcDb2dVertex
 10
87.282528
 20
143.022106
 30
0.0
  0
SEQEND
  5
2D7
100
AcDbEntity
  8
D1
 62
     7
  0
POLYLINE
  5
2CC
100
AcDbEntity
  8
D1
 62
     7
100
AcDb2dPolyline
 66
     1
 10
0.0
 20
0.0
 30
0.0
 70
     1
  0
VERTEX
  5
2CD
100
AcDbEntity
  8
D1
 62
     7
100
AcDbVertex
100
AcDb2dVertex
 10
87.282528
 20
137.702534
 30
0.0
  0
VERTEX
  5
2CE
100
AcDbEntity
  8
D1
 62
     7
100
AcDbVertex
100
AcDb2dVertex
 10
82.799942
 20
137.702534
 30
0.0
  0
VERTEX
  5
2CF
100
AcDbEntity
  8
D1
 62
     7
100
AcDbVertex
100
AcDb2dVertex
 10
82.799942
 20
143.022106
 30
0.0
  0
VERTEX
  5
2D0
100
AcDbEntity
  8
D1
 62
     7
100
AcDbVertex
100
AcDb2dVertex
 10
87.282528
 20
143.022106
 30
0.0
  0
SEQEND
  5
2D1
100
AcDbEntity
  8
D1
 62
     7
  0
HATCH
  5
2CB
100
AcDbEntity
  8
D1
 62
     7
100
AcDbHatch
 10
0.0
 20
0.0
 30
0.0
210
0.0
220
0.0
230
1.0
  2
_U
 70
     0
 71
     0
 91
        1
 92
        3
 72
     0
 73
     1
 93
        4
 10
87.28252766927082
 20
137.70253363715275
 10
82.799941677517353
 20
137.70253363715275
 10
82.799941677517353
 20
143.02210557725692
 10
87.28252766927082
 20
143.02210557725692
 97
        0
 75
     0
 76
     0
 52
45.0
 41
2.0
 77
     0
 78
     1
 53
45.0
 43
0.0
 44
0.0
 45
-1.4142135623730949
 46
1.4142135623730951
 79
     0
 98
        1
 10
0.0
 20
0.0
  0
SPLINE
  5
2CA
100
AcDbEntity
  8
D1
 62
     7
100
AcDbSpline
210
0.0
220
0.0
230
1.0
 70
     8
 71
     3
 72
    14
 73
    10
 74
     0
 42
0.00000001
 43
0.00000001
 40
0.0
 40
0.0
 40
0.0
 40
0.0
 40
1.0
 40
1.0
 40
1.0
 40
2.0
 40
2.0
 40
2.0
 40
3.0
 40
3.0
 40
3.0
 40
3.0
 10
107.62426622178819
 20
141.85645751953123
 30
0.0
 10
107.60462917751735
 20
141.64871826171873
 30
0.0
 10
107.28423529730902
 20
140.9686564127604
 30
0.0
 10
106.94437662760416
 20
140.57677680121526
 30
0.0
 10
106.28360731336805
 20
139.81368815104165
 30
0.0
 10
105.55118001302083
 20
140.14097222222222
 30
0.0
 10
105.1069349500868
 20
139.81162109374998
 30
0.0
 10
104.86233317057291
 20
139.62989230685761
 30
0.0
 10
104.70489230685763
 20
139.24903700086804
 30
0.0
 10
104.54762369791666
 20
138.86800944010415
 30
0.0
  0
LINE
  5
2C9
100
AcDbEntity
  8
D1
 62
     7
100
AcDbLine
 10
107.624266
 20
141.856458
 30
0.0
 11
96.725879
 21
141.856458
 31
0.0
  0
LINE
  5
2C8
100
AcDbEntity
  8
D1
 62
     7
100
AcDbLine
 10
104.547624
 20
138.868009
 30
0.0
 11
96.725879
 21
138.868009
 31
0.0
  0
HATCH
  5
2C7
100
AcDbEntity
  8
D1
 62
     7
100
AcDbHatch
 10
0.0
 20
0.0
 30
0.0
210
0.0
220
0.0
230
1.0
  2
SOLID
 70
     1
 71
     0
 91
        2
 92
       16
 93
        1
 72
     4
 94
        3
 73
     0
 74
     0
 95
       17
 96
       13
 40
0.0
 40
0.0
 40
0.0
 40
0.0
 40
1.0
 40
1.0
 40
1.0
 40
2.0
 40
2.0
 40
2.0
 40
3.0
 40
3.0
 40
3.0
 40
4.0
 40
4.0
 40
4.0
 40
4.0
 10
74.915668402777769
 20
140.36231960720485
 10
74.915668402777769
 20
141.15503607855902
 10
74.272813585069443
 20
141.79789089626735
 10
73.480097113715274
 20
141.79789089626735
 10
72.687208387586793
 20
141.79789089626735
 10
72.044698079427079
 20
141.15503607855902
 10
72.044698079427079
 20
140.36231960720485
 10
72.044698079427079
 20
139.56943088107639
 10
72.687208387586793
 20
138.92692057291666
 10
73.480097113715274
 20
138.92692057291666
 10
74.272813585069443
 20
138.92692057291666
 10
74.915668402777769
 20
139.56943088107639
 10
74.915668402777769
 20
140.36231960720485
 97
        0
 92
        1
 93
        1
 72
     4
 94
        3
 73
     0
 74
     0
 95
       68
 96
       64
 40
0.0
 40
0.0
 40
0.0
 40
0.0
 40
1.0
 40
1.0
 40
1.0
 40
2.0
 40
2.0
 40
2.0
 40
3.0
 40
3.0
 40
3.0
 40
4.0
 40
4.0
 40
4.0
 40
5.0
 40
5.0
 40
5.0
 40
6.0
 40
6.0
 40
6.0
 40
7.0
 40
7.0
 40
7.0
 40
8.0
 40
8.0
 40
8.0
 40
9.0
 40
9.0
 40
9.0
 40
10.0
 40
10.0
 40
10.0
 40
11.0
 40
11.0
 40
11.0
 40
12.0
 40
12.0
 40
12.0
 40
13.0
 40
13.0
 40
13.0
 40
14.0
 40
14.0
 40
14.0
 40
15.0
 40
15.0
 40
15.0
 40
16.0
 40
16.0
 40
16.0
 40
17.0
 40
17.0
 40
17.0
 40
18.0
 40
18.0
 40
18.0
 40
19.0
 40
19.0
 40
19.0
 40
20.0
 40
20.0
 40
20.0
 40
21.0
 40
21.0
 40
21.0
 40
21.0
 10
72.387312825520823
 20
138.87903374565971
 10
72.271040852864573
 20
138.96447211371526
 10
72.165276421440964
 20
139.06369086371527
 10
72.072086588541666
 20
139.17393391927081
 10
72.072086588541666
 20
139.17393391927081
 10
72.223154025607627
 20
139.30140245225692
 10
72.223154025607627
 20
139.30140245225692
 10
71.69863823784722
 20
139.92272542317707
 10
71.706734212239581
 20
140.83378092447916
 10
72.242446560329853
 20
141.44545762803818
 10
72.242446560329853
 20
141.44545762803818
 10
72.093618435329859
 20
141.57568223741319
 10
72.093618435329859
 20
141.57568223741319
 10
72.186463758680546
 20
141.6814466688368
 10
72.290850151909709
 20
141.77653130425347
 10
72.405055067274304
 20
141.8585245768229
 10
72.405055067274304
 20
141.8585245768229
 10
72.52029351128472
 20
141.69815538194445
 10
72.52029351128472
 20
141.69815538194445
 10
72.67291124131944
 20
141.80770941840277
 10
72.843098958333329
 20
141.89021945529512
 10
73.023277452256934
 20
141.94241265190971
 10
73.023277452256934
 20
141.94241265190971
 10
72.968500434027774
 20
142.13223741319445
 10
72.968500434027774
 20
142.13223741319445
 10
73.30319146050347
 20
142.22887234157986
 10
73.658380805121524
 20
142.22887234157986
 10
73.992899576822907
 20
142.13189290364582
 10
73.992899576822907
 20
142.13189290364582
 10
73.937778049045136
 20
141.94206814236111
 10
73.937778049045136
 20
141.94206814236111
 10
74.147239854600684
 20
141.88143446180555
 10
74.34240451388888
 20
141.77980414496525
 10
74.512075466579859
 20
141.64320610894097
 10
75.219353569878464
 20
141.07338731553818
 10
75.330802408854154
 20
140.03779161241317
 10
74.76098361545138
 20
139.33034125434025
 10
74.76098361545138
 20
139.33034125434025
 10
74.914807128906247
 20
139.20631781684025
 10
74.914807128906247
 20
139.20631781684025
 10
74.83074679904513
 20
139.10193142361109
 10
74.73531765407985
 20
139.00719129774305
 10
74.630586751302076
 20
138.92347547743054
 10
74.630586751302076
 20
138.92347547743054
 10
74.507252332899299
 20
139.07781575520832
 10
74.507252332899299
 20
139.07781575520832
 10
74.459193250868054
 20
139.03923068576387
 10
74.40923936631944
 20
139.00374620225693
 10
74.357218424479157
 20
138.97101779513886
 10
74.357218424479157
 20
138.97101779513886
 10
74.462638346354154
 20
138.80393066406248
 10
74.462638346354154
 20
138.80393066406248
 10
74.34722764756944
 20
138.73123914930554
 10
74.224409993489573
 20
138.67163899739583
 10
74.096080186631937
 20
138.62581922743055
 10
74.096080186631937
 20
138.62581922743055
 10
74.0299343532986
 20
138.81219889322915
 10
74.0299343532986
 20
138.81219889322915
 10
73.515581597222209
 20
138.62960883246527
 10
72.944040256076377
 20
138.71435818142359
 10
72.504273817274296
 20
139.03819715711805
 10
72.504273817274296
 20
139.03819715711805
 10
72.387312825520823
 20
138.87903374565971
 10
72.387312825520823
 20
138.87903374565971
 97
        0
 75
     0
 76
     1
 98
        1
 10
0.0
 20
0.0
  0
HATCH
  5
2C6
100
AcDbEntity
  8
D1
 62
     7
100
AcDbHatch
 10
0.0
 20
0.0
 30
0.0
210
0.0
220
0.0
230
1.0
  2
SOLID
 70
     1
 71
     0
 91
        2
 92
       16
 93
        1
 72
     4
 94
        3
 73
     0
 74
     0
 95
       17
 96
       13
 40
0.0
 40
0.0
 40
0.0
 40
0.0
 40
1.0
 40
1.0
 40
1.0
 40
2.0
 40
2.0
 40
2.0
 40
3.0
 40
3.0
 40
3.0
 40
4.0
 40
4.0
 40
4.0
 40
4.0
 10
39.305094401041664
 20
179.32703857421873
 10
39.305094401041664
 20
183.29079318576387
 10
36.091853841145827
 20
186.50437825520831
 10
32.127754720052081
 20
186.50437825520831
 10
28.163655598958332
 20
186.50437825520831
 10
24.950415039062499
 20
183.29079318576387
 10
24.950415039062499
 20
179.32703857421873
 10
24.950415039062499
 20
175.36293945312499
 10
28.163655598958332
 20
172.14935438368053
 10
32.127754720052081
 20
172.14935438368053
 10
36.091853841145827
 20
172.14935438368053
 10
39.305094401041664
 20
175.36293945312499
 10
39.305094401041664
 20
179.32703857421873
 97
        0
 92
        1
 93
        1
 72
     4
 94
        3
 73
     0
 74
     0
 95
       68
 96
       64
 40
0.0
 40
0.0
 40
0.0
 40
0.0
 40
1.0
 40
1.0
 40
1.0
 40
2.0
 40
2.0
 40
2.0
 40
3.0
 40
3.0
 40
3.0
 40
4.0
 40
4.0
 40
4.0
 40
5.0
 40
5.0
 40
5.0
 40
6.0
 40
6.0
 40
6.0
 40
7.0
 40
7.0
 40
7.0
 40
8.0
 40
8.0
 40
8.0
 40
9.0
 40
9.0
 40
9.0
 40
10.0
 40
10.0
 40
10.0
 40
11.0
 40
11.0
 40
11.0
 40
12.0
 40
12.0
 40
12.0
 40
13.0
 40
13.0
 40
13.0
 40
14.0
 40
14.0
 40
14.0
 40
15.0
 40
15.0
 40
15.0
 40
16.0
 40
16.0
 40
16.0
 40
17.0
 40
17.0
 40
17.0
 40
18.0
 40
18.0
 40
18.0
 40
19.0
 40
19.0
 40
19.0
 40
20.0
 40
20.0
 40
20.0
 40
21.0
 40
21.0
 40
21.0
 40
21.0
 10
26.663316514756943
 20
171.91078152126735
 10
26.08247341579861
 20
172.33866238064235
 10
25.553995768229164
 20
172.8333780924479
 10
25.088563368055553
 20
173.38459337022567
 10
25.088563368055553
 20
173.38459337022567
 10
25.843556043836802
 20
174.02193603515624
 10
25.843556043836802
 20
174.02193603515624
 10
23.221321614583331
 20
177.128034125434
 10
23.261973741319441
 20
181.68434516059025
 10
25.939329698350694
 20
184.74307318793402
 10
25.939329698350694
 20
184.74307318793402
 10
25.195878092447913
 20
185.39367947048609
 10
25.195878092447913
 20
185.39367947048609
 10
25.658898925781248
 20
185.92301839192706
 10
26.181003146701386
 20
186.39723578559025
 10
26.752199978298609
 20
186.80754665798608
 10
26.752199978298609
 20
186.80754665798608
 10
27.328564453124997
 20
186.00552842881942
 10
27.328564453124997
 20
186.00552842881942
 10
28.091136338975691
 20
186.5532986111111
 10
28.941902669270831
 20
186.96671006944442
 10
29.844000922309025
 20
187.22750379774303
 10
29.844000922309025
 20
187.22750379774303
 10
29.569771321614581
 20
188.17645534939234
 10
29.569771321614581
 20
188.17645534939234
 10
31.243054199218747
 20
188.66031901041666
 10
33.019173177083331
 20
188.65962999131943
 10
34.69193929036458
 20
188.1747328016493
 10
34.69193929036458
 20
188.1747328016493
 10
34.41702067057291
 20
187.22595350477428
 10
34.41702067057291
 20
187.22595350477428
 10
35.463296169704861
 20
186.92261284722221
 10
36.438947211371527
 20
186.41446126302083
 10
37.287301974826384
 20
185.73129882812498
 10
40.824209255642359
 20
182.88151584201387
 10
41.38145345052083
 20
177.70439860026039
 10
38.532014973958333
 20
174.16749131944442
 10
38.532014973958333
 20
174.16749131944442
 10
39.301304796006939
 20
173.54771864149305
 10
39.301304796006939
 20
173.54771864149305
 10
38.880486382378471
 20
173.02526991102428
 10
38.403857421874996
 20
172.55036349826386
 10
37.879686143663193
 20
172.13143988715277
 10
37.879686143663193
 20
172.13143988715277
 10
37.2630140516493
 20
172.90314127604165
 10
37.2630140516493
 20
172.90314127604165
 10
37.023235405815967
 20
172.71159396701387
 10
36.77294921875
 20
172.53348253038192
 10
36.513361273871524
 20
172.36984049479165
 10
36.513361273871524
 20
172.36984049479165
 10
37.040288628472219
 20
171.53406032986109
 10
37.040288628472219
 20
171.53406032986109
 10
36.464096408420133
 20
171.17094726562499
 10
35.849491373697916
 20
170.87277425130208
 10
35.207497829861111
 20
170.64505343967014
 10
35.207497829861111
 20
170.64505343967014
 10
34.877285427517357
 20
171.57609049479166
 10
34.877285427517357
 20
171.57609049479166
 10
32.304660373263886
 20
170.66348470052083
 10
29.446953667534718
 20
171.08688693576389
 10
27.249327256944444
 20
172.70608181423609
 10
27.249327256944444
 20
172.70608181423609
 10
26.663316514756943
 20
171.91078152126735
 10
26.663316514756943
 20
171.91078152126735
 97
        0
 75
     0
 76
     1
 98
        1
 10
0.0
 20
0.0
  0
MTEXT
  5
2C5
100
AcDbEntity
  8
D1
 62
     7
100
AcDbMText
 10
23.611823
 20
165.618562
 30
0.0
 40
1.195351
 41
0.0
 71
     1
 72
     2
  1
\fArial|b0|i0;HIROSE CONNECTOR*
  7
STD
210
0.0
220
0.0
230
1.0
 11
1.000001
 21
0.0
 31
0.0
 73
     1
 44
1.0
  0
MTEXT
  5
2C4
100
AcDbEntity
  8
D1
 62
     7
100
AcDbMText
 10
56.313014
 20
165.618562
 30
0.0
 40
1.195351
 41
0.0
 71
     1
 72
     2
  1
\fArial|b0|i0;PHOTODIODE DETAIL
  7
STD
210
0.0
220
0.0
230
1.0
 11
1.000001
 21
0.0
 31
0.0
 73
     1
 44
1.0
  0
POLYLINE
  5
2BD
100
AcDbEntity
  8
BORDER
 62
     7
100
AcDb2dPolyline
 66
     1
 10
0.0
 20
0.0
 30
0.0
 70
     1
  0
VERTEX
  5
2BE
100
AcDbEntity
  8
BORDER
 62
     7
100
AcDbVertex
100
AcDb2dVertex
 10
4.233333
 20
73.968612
 30
0.0
  0
VERTEX
  5
2BF
100
AcDbEntity
  8
BORDER
 62
     7
100
AcDbVertex
100
AcDb2dVertex
 10
207.44298
 20
73.968612
 30
0.0
  0
VERTEX
  5
2C0
100
AcDbEntity
  8
BORDER
 62
     7
100
AcDbVertex
100
AcDb2dVertex
 10
207.44298
 20
205.456882
 30
0.0
  0
VERTEX
  5
2C1
100
AcDbEntity
  8
BORDER
 62
     7
100
AcDbVertex
100
AcDb2dVertex
 10
4.233333
 20
205.456882
 30
0.0
  0
SEQEND
  5
2C2
100
AcDbEntity
  8
BORDER
 62
     7
  0
LINE
  5
2BC
100
AcDbEntity
  8
BORDER
 62
     7
100
AcDbLine
 10
194.709907
 20
80.769919
 30
0.0
 11
194.709907
 21
77.42921
 31
0.0
  0
LINE
  5
2BB
100
AcDbEntity
  8
BORDER
 62
     7
100
AcDbLine
 10
184.785276
 20
80.769919
 30
0.0
 11
184.785276
 21
73.869737
 31
0.0
  0
LINE
  5
2BA
100
AcDbEntity
  8
BORDER
 62
     7
100
AcDbLine
 10
207.512571
 20
77.42921
 30
0.0
 11
168.344591
 21
77.42921
 31
0.0
  0
LINE
  5
2B9
100
AcDbEntity
  8
BORDER
 62
     7
100
AcDbLine
 10
207.564591
 20
80.769919
 30
0.0
 11
168.344591
 21
80.769919
 31
0.0
  0
LINE
  5
2B8
100
AcDbEntity
  8
BORDER
 62
     7
100
AcDbLine
 10
168.344591
 20
84.110973
 30
0.0
 11
207.564591
 21
84.110973
 31
0.0
  0
LINE
  5
2B7
100
AcDbEntity
  8
BORDER
 62
     7
100
AcDbLine
 10
168.344591
 20
87.452371
 30
0.0
 11
207.323435
 21
87.452371
 31
0.0
  0
LINE
  5
2B6
100
AcDbEntity
  8
BORDER
 62
     7
100
AcDbLine
 10
207.323435
 20
89.34235
 30
0.0
 11
168.344591
 21
89.34235
 31
0.0
  0
LINE
  5
2B5
100
AcDbEntity
  8
BORDER
 62
     7
100
AcDbLine
 10
168.344591
 20
91.235775
 30
0.0
 11
207.323435
 21
91.235775
 31
0.0
  0
LINE
  5
2B4
100
AcDbEntity
  8
BORDER
 62
     7
100
AcDbLine
 10
168.344591
 20
91.235775
 30
0.0
 11
207.323435
 21
91.235775
 31
0.0
  0
LINE
  5
2B3
100
AcDbEntity
  8
BORDER
 62
     7
100
AcDbLine
 10
168.344591
 20
87.452371
 30
0.0
 11
207.323435
 21
87.452371
 31
0.0
  0
LINE
  5
2B2
100
AcDbEntity
  8
BORDER
 62
     7
100
AcDbLine
 10
168.344591
 20
84.110973
 30
0.0
 11
207.564591
 21
84.110973
 31
0.0
  0
LINE
  5
2B1
100
AcDbEntity
  8
BORDER
 62
     7
100
AcDbLine
 10
168.344591
 20
80.769919
 30
0.0
 11
207.564591
 21
80.769919
 31
0.0
  0
LINE
  5
2B0
100
AcDbEntity
  8
BORDER
 62
     7
100
AcDbLine
 10
168.344591
 20
77.42921
 30
0.0
 11
207.512571
 21
77.42921
 31
0.0
  0
LINE
  5
2AF
100
AcDbEntity
  8
BORDER
 62
     7
100
AcDbLine
 10
168.344591
 20
89.34235
 30
0.0
 11
207.323435
 21
89.34235
 31
0.0
  0
POLYLINE
  5
2A9
100
AcDbEntity
  8
BORDER
 62
     7
100
AcDb2dPolyline
 66
     1
 10
0.0
 20
0.0
 30
0.0
 70
     1
  0
VERTEX
  5
2AA
100
AcDbEntity
  8
BORDER
 62
     7
100
AcDbVertex
100
AcDb2dVertex
 10
207.323435
 20
94.465552
 30
0.0
  0
VERTEX
  5
2AB
100
AcDbEntity
  8
BORDER
 62
     7
100
AcDbVertex
100
AcDb2dVertex
 10
207.323435
 20
94.688449
 30
0.0
  0
VERTEX
  5
2AC
100
AcDbEntity
  8
BORDER
 62
     7
100
AcDbVertex
100
AcDb2dVertex
 10
168.400057
 20
94.688449
 30
0.0
  0
VERTEX
  5
2AD
100
AcDbEntity
  8
BORDER
 62
     7
100
AcDbVertex
100
AcDb2dVertex
 10
168.400057
 20
94.465552
 30
0.0
  0
SEQEND
  5
2AE
100
AcDbEntity
  8
BORDER
 62
     7
  0
HATCH
  5
2A8
100
AcDbEntity
  8
BORDER
 62
     7
100
AcDbHatch
 10
0.0
 20
0.0
 30
0.0
210
0.0
220
0.0
230
1.0
  2
SOLID
 70
     1
 71
     0
 91
        1
 92
        3
 72
     0
 73
     1
 93
        4
 10
168.40005696614583
 20
94.465551757812491
 10
168.40005696614583
 20
94.688449435763886
 10
207.32343478732636
 20
94.688449435763886
 10
207.32343478732636
 20
94.465551757812491
 97
        0
 75
     0
 76
     1
 98
        1
 10
0.0
 20
0.0
  0
MTEXT
  5
2A7
100
AcDbEntity
  8
BORDER
 62
     7
100
AcDbMText
 10
195.17086
 20
80.279875
 30
0.0
 40
0.688523
 41
0.0
 71
     1
 72
     2
  1
\fMyriad Roman|b0|i0;DRAWING SCALE
  7
STD
210
0.0
220
0.0
230
1.0
 11
1.000001
 21
0.0
 31
0.0
 73
     1
 44
1.0
  0
MTEXT
  5
2A6
100
AcDbEntity
  8
BORDER
 62
     7
100
AcDbMText
 10
191.339225
 20
87.028128
 30
0.0
 40
0.688523
 41
0.0
 71
     1
 72
     2
  1
\fMyriad Roman|b0|i0;APPROVED
  7
STD
210
0.0
220
0.0
230
1.0
 11
1.000001
 21
0.0
 31
0.0
 73
     1
 44
1.0
  0
MTEXT
  5
2A5
100
AcDbEntity
  8
BORDER
 62
     7
100
AcDbMText
 10
169.346769
 20
90.553945
 30
0.0
 40
0.77958
 41
0.0
 71
     1
 72
     2
  1
\fMyriad Roman|b0|i0;TOL: X.XXX=+/-0.005 X.XX=+/-0.010 ANGULAR +/-30'
  7
STD
210
0.0
220
0.0
230
1.0
 11
1.000001
 21
0.0
 31
0.0
 73
     1
 44
1.0
  0
POLYLINE
  5
29F
100
AcDbEntity
  8
BORDER
 62
     7
100
AcDb2dPolyline
 66
     1
 10
0.0
 20
0.0
 30
0.0
 70
     1
  0
VERTEX
  5
2A0
100
AcDbEntity
  8
BORDER
 62
     7
100
AcDbVertex
100
AcDb2dVertex
 10
207.323435
 20
98.753318
 30
0.0
  0
VERTEX
  5
2A1
100
AcDbEntity
  8
BORDER
 62
     7
100
AcDbVertex
100
AcDb2dVertex
 10
207.323435
 20
99.31039
 30
0.0
  0
VERTEX
  5
2A2
100
AcDbEntity
  8
BORDER
 62
     7
100
AcDbVertex
100
AcDb2dVertex
 10
168.065883
 20
99.31039
 30
0.0
  0
VERTEX
  5
2A3
100
AcDbEntity
  8
BORDER
 62
     7
100
AcDbVertex
100
AcDb2dVertex
 10
168.62261
 20
98.753318
 30
0.0
  0
SEQEND
  5
2A4
100
AcDbEntity
  8
BORDER
 62
     7
  0
HATCH
  5
29E
100
AcDbEntity
  8
BORDER
 62
     7
100
AcDbHatch
 10
0.0
 20
0.0
 30
0.0
210
0.0
220
0.0
230
1.0
  2
SOLID
 70
     1
 71
     0
 91
        1
 92
        3
 72
     0
 73
     1
 93
        4
 10
168.62261013454861
 20
98.753317599826374
 10
168.06588270399305
 20
99.31038953993054
 10
207.32343478732636
 20
99.31038953993054
 10
207.32343478732636
 20
98.753317599826374
 97
        0
 75
     0
 76
     1
 98
        1
 10
0.0
 20
0.0
  0
MTEXT
  5
29D
100
AcDbEntity
  8
BORDER
 62
     7
100
AcDbMText
 10
169.186228
 20
88.693289
 30
0.0
 40
0.744825
 41
0.0
 71
     1
 72
     2
  1
\fMyriad Roman|b0|i0;SURF. FINISH: 32 MICROINCHES UNLESS OTHERWISE NOTED
  7
STD
210
0.0
220
0.0
230
1.0
 11
1.000001
 21
0.0
 31
0.0
 73
     1
 44
1.0
  0
LINE
  5
29C
100
AcDbEntity
  8
BORDER
 62
     7
100
AcDbLine
 10
181.010829
 20
80.769919
 30
0.0
 11
181.010829
 21
77.42921
 31
0.0
  0
LINE
  5
29B
100
AcDbEntity
  8
BORDER
 62
     7
100
AcDbLine
 10
177.763826
 20
80.769919
 30
0.0
 11
177.763826
 21
77.42921
 31
0.0
  0
LINE
  5
29A
100
AcDbEntity
  8
BORDER
 62
     7
100
AcDbLine
 10
180.604308
 20
87.452371
 30
0.0
 11
180.604308
 21
84.110973
 31
0.0
  0
LINE
  5
299
100
AcDbEntity
  8
BORDER
 62
     7
100
AcDbLine
 10
190.226115
 20
87.452371
 30
0.0
 11
190.226115
 21
84.110973
 31
0.0
  0
LINE
  5
298
100
AcDbEntity
  8
BORDER
 62
     7
100
AcDbLine
 10
181.010829
 20
80.769919
 30
0.0
 11
181.010829
 21
77.42921
 31
0.0
  0
LINE
  5
297
100
AcDbEntity
  8
BORDER
 62
     7
100
AcDbLine
 10
180.604308
 20
84.110973
 30
0.0
 11
180.604308
 21
87.452371
 31
0.0
  0
LINE
  5
296
100
AcDbEntity
  8
BORDER
 62
     7
100
AcDbLine
 10
190.226115
 20
84.110973
 30
0.0
 11
190.226115
 21
87.452371
 31
0.0
  0
LINE
  5
295
100
AcDbEntity
  8
BORDER
 62
     7
100
AcDbLine
 10
177.763826
 20
77.42921
 30
0.0
 11
177.763826
 21
80.769919
 31
0.0
  0
MTEXT
  5
294
100
AcDbEntity
  8
BORDER
 62
     7
100
AcDbMText
 10
181.684345
 20
80.2971
 30
0.0
 40
0.688523
 41
0.0
 71
     1
 72
     2
  1
\fMyriad Roman|b0|i0;SIZE
  7
STD
210
0.0
220
0.0
230
1.0
 11
1.000001
 21
0.0
 31
0.0
 73
     1
 44
1.0
  0
POLYLINE
  5
28E
100
AcDbEntity
  8
BORDER
 62
     7
100
AcDb2dPolyline
 66
     1
 10
0.0
 20
0.0
 30
0.0
 70
     1
  0
VERTEX
  5
28F
100
AcDbEntity
  8
BORDER
 62
     7
100
AcDbVertex
100
AcDb2dVertex
 10
168.62261
 20
98.759519
 30
0.0
  0
VERTEX
  5
290
100
AcDbEntity
  8
BORDER
 62
     7
100
AcDbVertex
100
AcDb2dVertex
 10
168.065883
 20
99.316246
 30
0.0
  0
VERTEX
  5
291
100
AcDbEntity
  8
BORDER
 62
     7
100
AcDbVertex
100
AcDb2dVertex
 10
168.065883
 20
74.087812
 30
0.0
  0
VERTEX
  5
292
100
AcDbEntity
  8
BORDER
 62
     7
100
AcDbVertex
100
AcDb2dVertex
 10
168.62261
 20
74.087812
 30
0.0
  0
SEQEND
  5
293
100
AcDbEntity
  8
BORDER
 62
     7
  0
HATCH
  5
28D
100
AcDbEntity
  8
BORDER
 62
     7
100
AcDbHatch
 10
0.0
 20
0.0
 30
0.0
210
0.0
220
0.0
230
1.0
  2
SOLID
 70
     1
 71
     0
 91
        1
 92
        3
 72
     0
 73
     1
 93
        4
 10
168.62261013454861
 20
74.087811957465277
 10
168.06588270399305
 20
74.087811957465277
 10
168.06588270399305
 20
99.316246202256934
 10
168.62261013454861
 20
98.75951877170138
 97
        0
 75
     0
 76
     1
 98
        1
 10
0.0
 20
0.0
  0
LINE
  5
28C
100
AcDbEntity
  8
BORDER
 62
     7
100
AcDbLine
 10
194.709907
 20
80.769919
 30
0.0
 11
194.709907
 21
77.42921
 31
0.0
  0
LINE
  5
28B
100
AcDbEntity
  8
BORDER
 62
     7
100
AcDbLine
 10
184.785276
 20
73.869737
 30
0.0
 11
184.785276
 21
80.769919
 31
0.0
  0
MTEXT
  5
28A
100
AcDbEntity
  8
BORDER
 62
     7
100
AcDbMText
 10
169.40258
 20
77.080521
 30
0.0
 40
0.77958
 41
0.0
 71
     1
 72
     2
  1
\fMyriad Roman|b0|i0;DWG NO.
  7
STD
210
0.0
220
0.0
230
1.0
 11
1.000001
 21
0.0
 31
0.0
 73
     1
 44
1.0
  0
MTEXT
  5
289
100
AcDbEntity
  8
BORDER
 62
     7
100
AcDbMText
 10
185.496688
 20
77.080521
 30
0.0
 40
0.77958
 41
0.0
 71
     1
 72
     2
  1
\fMyriad Roman|b0|i0;PART NO.
  7
STD
210
0.0
220
0.0
230
1.0
 11
1.000001
 21
0.0
 31
0.0
 73
     1
 44
1.0
  0
MTEXT
  5
288
100
AcDbEntity
  8
BORDER
 62
     7
100
AcDbMText
 10
180.860623
 20
87.028128
 30
0.0
 40
0.688523
 41
0.0
 71
     1
 72
     2
  1
\fMyriad Roman|b0|i0;ENGINEER
  7
STD
210
0.0
220
0.0
230
1.0
 11
1.000001
 21
0.0
 31
0.0
 73
     1
 44
1.0
  0
MTEXT
  5
287
100
AcDbEntity
  8
BORDER
 62
     7
100
AcDbMText
 10
169.346769
 20
83.656519
 30
0.0
 40
0.77958
 41
0.0
 71
     1
 72
     2
  1
\fMyriad Roman|b0|i0;MATERIAL
  7
STD
210
0.0
220
0.0
230
1.0
 11
1.000001
 21
0.0
 31
0.0
 73
     1
 44
1.0
  0
MTEXT
  5
286
100
AcDbEntity
  8
BORDER
 62
     7
100
AcDbMText
 10
169.40258
 20
80.332585
 30
0.0
 40
0.688523
 41
0.0
 71
     1
 72
     2
  1
\fMyriad Roman|b0|i0;DATE
  7
STD
210
0.0
220
0.0
230
1.0
 11
1.000001
 21
0.0
 31
0.0
 73
     1
 44
1.0
  0
MTEXT
  5
285
100
AcDbEntity
  8
BORDER
 62
     7
100
AcDbMText
 10
169.272355
 20
87.028128
 30
0.0
 40
0.688523
 41
0.0
 71
     1
 72
     2
  1
\fMyriad Roman|b0|i0;DRAWN
  7
STD
210
0.0
220
0.0
230
1.0
 11
1.000001
 21
0.0
 31
0.0
 73
     1
 44
1.0
  0
MTEXT
  5
284
100
AcDbEntity
  8
BORDER
 62
     7
100
AcDbMText
 10
178.11936
 20
80.276774
 30
0.0
 40
0.688523
 41
0.0
 71
     1
 72
     2
  1
\fMyriad Roman|b0|i0;REV
  7
STD
210
0.0
220
0.0
230
1.0
 11
1.000001
 21
0.0
 31
0.0
 73
     1
 44
1.0
  0
MTEXT
  5
283
100
AcDbEntity
  8
BORDER
 62
     7
100
AcDbMText
 10
169.346769
 20
94.173362
 30
0.0
 40
0.77958
 41
0.0
 71
     1
 72
     2
  1
\fMyriad Roman|b0|i0;TITLE
  7
STD
210
0.0
220
0.0
230
1.0
 11
1.000001
 21
0.0
 31
0.0
 73
     1
 44
1.0
  0
MTEXT
  5
282
100
AcDbEntity
  8
BORDER
 62
     7
100
AcDbMText
 10
185.237961
 20
80.279875
 30
0.0
 40
0.688523
 41
0.0
 71
     1
 72
     2
  1
\fMyriad Roman|b0|i0;SHEET
  7
STD
210
0.0
220
0.0
230
1.0
 11
1.000001
 21
0.0
 31
0.0
 73
     1
 44
1.0
  0
MTEXT
  5
281
100
AcDbEntity
  8
BORDER
 62
     7
100
AcDbMText
 10
189.05616
 20
79.040091
 30
0.0
 40
0.77958
 41
0.0
 71
     1
 72
     2
  1
\fMyriad Roman|b0|i0;OF
  7
STD
210
0.0
220
0.0
230
1.0
 11
1.000001
 21
0.0
 31
0.0
 73
     1
 44
1.0
  0
MTEXT
  5
280
100
AcDbEntity
  8
BORDER
 62
     7
100
AcDbMText
 10
193.827962
 20
98.281598
 30
0.0
 40
1.252895
 41
0.0
 71
     1
 72
     2
  1
\fMyriad Roman|b0|i0;PO BOX 366
  7
STD
210
0.0
220
0.0
230
1.0
 11
1.000001
 21
0.0
 31
0.0
 73
     1
 44
1.0
  0
MTEXT
  5
27F
100
AcDbEntity
  8
BORDER
 62
     7
100
AcDbMText
 10
193.827962
 20
96.193181
 30
0.0
 40
1.252895
 41
0.0
 71
     1
 72
     2
  1
\fMyriad Roman|b0|i0;NEWTON NJ
  7
STD
210
0.0
220
0.0
230
1.0
 11
1.000001
 21
0.0
 31
0.0
 73
     1
 44
1.0
  0
SPLINE
  5
27E
100
AcDbEntity
  8
BORDER
 62
     7
100
AcDbSpline
210
0.0
220
0.0
230
1.0
 70
     8
 71
     3
 72
     8
 73
     4
 74
     0
 42
0.00000001
 43
0.00000001
 40
0.0
 40
0.0
 40
0.0
 40
0.0
 40
1.0
 40
1.0
 40
1.0
 40
1.0
 10
192.06166178385416
 20
97.516183810763877
 30
0.0
 10
192.08681098090275
 20
97.6563991970486
 30
0.0
 10
192.06924099392359
 20
97.801437717013883
 30
0.0
 10
192.0103298611111
 20
97.931317816840263
 30
0.0
  0
POLYLINE
  5
278
100
AcDbEntity
  8
BORDER
 62
     7
100
AcDb2dPolyline
 66
     1
 10
0.0
 20
0.0
 30
0.0
 70
     1
  0
VERTEX
  5
279
100
AcDbEntity
  8
BORDER
 62
     7
100
AcDbVertex
100
AcDb2dVertex
 10
191.891819
 20
97.614714
 30
0.0
  0
VERTEX
  5
27A
100
AcDbEntity
  8
BORDER
 62
     7
100
AcDbVertex
100
AcDb2dVertex
 10
192.082677
 20
97.51894
 30
0.0
  0
VERTEX
  5
27B
100
AcDbEntity
  8
BORDER
 62
     7
100
AcDbVertex
100
AcDb2dVertex
 10
191.996205
 20
97.99333
 30
0.0
  0
VERTEX
  5
27C
100
AcDbEntity
  8
BORDER
 62
     7
100
AcDbVertex
100
AcDb2dVertex
 10
191.814304
 20
97.871029
 30
0.0
  0
SEQEND
  5
27D
100
AcDbEntity
  8
BORDER
 62
     7
  0
HATCH
  5
277
100
AcDbEntity
  8
BORDER
 62
     7
100
AcDbHatch
 10
0.0
 20
0.0
 30
0.0
210
0.0
220
0.0
230
1.0
  2
SOLID
 70
     1
 71
     0
 91
        1
 92
        3
 72
     0
 73
     1
 93
        4
 10
191.81430392795136
 20
97.87102864583332
 10
191.99620496961805
 20
97.993329535590263
 10
192.08267686631942
 20
97.518939887152769
 10
191.89181857638886
 20
97.61471354166666
 97
        0
 75
     0
 76
     1
 98
        1
 10
0.0
 20
0.0
  0
SPLINE
  5
276
100
AcDbEntity
  8
BORDER
 62
     7
100
AcDbSpline
210
0.0
220
0.0
230
1.0
 70
     8
 71
     3
 72
     8
 73
     4
 74
     0
 42
0.00000001
 43
0.00000001
 40
0.0
 40
0.0
 40
0.0
 40
0.0
 40
1.0
 40
1.0
 40
1.0
 40
1.0
 10
190.61403266059025
 20
97.858281792534711
 30
0.0
 10
190.50068901909719
 20
97.518250868055546
 30
0.0
 10
190.67363281249999
 20
97.148936631944437
 30
0.0
 10
191.00780707465276
 20
97.018023003472209
 30
0.0
  0
POLYLINE
  5
270
100
AcDbEntity
  8
BORDER
 62
     7
100
AcDb2dPolyline
 66
     1
 10
0.0
 20
0.0
 30
0.0
 70
     1
  0
VERTEX
  5
271
100
AcDbEntity
  8
BORDER
 62
     7
100
AcDbVertex
100
AcDb2dVertex
 10
190.94235
 20
97.959223
 30
0.0
  0
VERTEX
  5
272
100
AcDbEntity
  8
BORDER
 62
     7
100
AcDbVertex
100
AcDb2dVertex
 10
190.793867
 20
98.120798
 30
0.0
  0
VERTEX
  5
273
100
AcDbEntity
  8
BORDER
 62
     7
100
AcDbVertex
100
AcDb2dVertex
 10
190.588539
 20
97.832099
 30
0.0
  0
VERTEX
  5
274
100
AcDbEntity
  8
BORDER
 62
     7
100
AcDbVertex
100
AcDb2dVertex
 10
190.758727
 20
97.762164
 30
0.0
  0
SEQEND
  5
275
100
AcDbEntity
  8
BORDER
 62
     7
  0
HATCH
  5
26F
100
AcDbEntity
  8
BORDER
 62
     7
100
AcDbHatch
 10
0.0
 20
0.0
 30
0.0
210
0.0
220
0.0
230
1.0
  2
SOLID
 70
     1
 71
     0
 91
        1
 92
        3
 72
     0
 73
     1
 93
        4
 10
190.75872667100694
 20
97.762163628472209
 10
190.58853895399304
 20
97.832099066840271
 10
190.79386664496525
 20
98.120798068576377
 10
190.94235026041665
 20
97.959223090277774
 97
        0
 75
     0
 76
     1
 98
        1
 10
0.0
 20
0.0
  0
POLYLINE
  5
269
100
AcDbEntity
  8
BORDER
 62
     7
100
AcDb2dPolyline
 66
     1
 10
0.0
 20
0.0
 30
0.0
 70
     1
  0
VERTEX
  5
26A
100
AcDbEntity
  8
BORDER
 62
     7
100
AcDbVertex
100
AcDb2dVertex
 10
190.758727
 20
97.762164
 30
0.0
  0
VERTEX
  5
26B
100
AcDbEntity
  8
BORDER
 62
     7
100
AcDbVertex
100
AcDb2dVertex
 10
190.588539
 20
97.832099
 30
0.0
  0
VERTEX
  5
26C
100
AcDbEntity
  8
BORDER
 62
     7
100
AcDbVertex
100
AcDb2dVertex
 10
190.610243
 20
97.376313
 30
0.0
  0
VERTEX
  5
26D
100
AcDbEntity
  8
BORDER
 62
     7
100
AcDbVertex
100
AcDb2dVertex
 10
190.788699
 20
97.449004
 30
0.0
  0
SEQEND
  5
26E
100
AcDbEntity
  8
BORDER
 62
     7
  0
HATCH
  5
268
100
AcDbEntity
  8
BORDER
 62
     7
100
AcDbHatch
 10
0.0
 20
0.0
 30
0.0
210
0.0
220
0.0
230
1.0
  2
SOLID
 70
     1
 71
     0
 91
        1
 92
        3
 72
     0
 73
     1
 93
        4
 10
190.78869900173609
 20
97.44900444878472
 10
190.61024305555554
 20
97.376312934027766
 10
190.58853895399304
 20
97.832099066840271
 10
190.75872667100694
 20
97.762163628472209
 97
        0
 75
     0
 76
     1
 98
        1
 10
0.0
 20
0.0
  0
SPLINE
  5
267
100
AcDbEntity
  8
BORDER
 62
     7
100
AcDbSpline
210
0.0
220
0.0
230
1.0
 70
     8
 71
     3
 72
     8
 73
     4
 74
     0
 42
0.00000001
 43
0.00000001
 40
0.0
 40
0.0
 40
0.0
 40
0.0
 40
1.0
 40
1.0
 40
1.0
 40
1.0
 10
187.55272081163193
 20
97.372178819444429
 30
0.0
 10
187.55857747395831
 20
97.624015299479154
 30
0.0
 10
187.42938639322915
 20
97.860004340277769
 30
0.0
 10
187.21441243489582
 20
97.991262478298609
 30
0.0
  0
POLYLINE
  5
261
100
AcDbEntity
  8
BORDER
 62
     7
100
AcDb2dPolyline
 66
     1
 10
0.0
 20
0.0
 30
0.0
 70
     1
  0
VERTEX
  5
262
100
AcDbEntity
  8
BORDER
 62
     7
100
AcDbVertex
100
AcDb2dVertex
 10
178.315042
 20
97.70153
 30
0.0
  0
VERTEX
  5
263
100
AcDbEntity
  8
BORDER
 62
     7
100
AcDbVertex
100
AcDb2dVertex
 10
178.315042
 20
98.110807
 30
0.0
  0
VERTEX
  5
264
100
AcDbEntity
  8
BORDER
 62
     7
100
AcDbVertex
100
AcDb2dVertex
 10
179.404036
 20
98.17902
 30
0.0
  0
VERTEX
  5
265
100
AcDbEntity
  8
BORDER
 62
     7
100
AcDbVertex
100
AcDb2dVertex
 10
179.115337
 20
97.70153
 30
0.0
  0
SEQEND
  5
266
100
AcDbEntity
  8
BORDER
 62
     7
  0
HATCH
  5
260
100
AcDbEntity
  8
BORDER
 62
     7
100
AcDbHatch
 10
0.0
 20
0.0
 30
0.0
210
0.0
220
0.0
230
1.0
  2
SOLID
 70
     1
 71
     0
 91
        1
 92
        3
 72
     0
 73
     1
 93
        4
 10
178.3150417751736
 20
97.701529947916654
 10
178.3150417751736
 20
98.11080729166666
 10
179.40403645833331
 20
98.179020182291652
 10
179.11533745659722
 20
97.701529947916654
 97
        0
 75
     0
 76
     1
 98
        1
 10
0.0
 20
0.0
  0
SPLINE
  5
25F
100
AcDbEntity
  8
BORDER
 62
     7
100
AcDbSpline
210
0.0
220
0.0
230
1.0
 70
     8
 71
     3
 72
    11
 73
     7
 74
     0
 42
0.00000001
 43
0.00000001
 40
0.0
 40
0.0
 40
0.0
 40
0.0
 40
1.0
 40
1.0
 40
1.0
 40
2.0
 40
2.0
 40
2.0
 40
2.0
 10
179.49808756510416
 20
96.601855468749989
 30
0.0
 10
179.8963406032986
 20
96.65112033420138
 30
0.0
 10
180.18745117187498
 20
97.002520073784709
 30
0.0
 10
180.16264648437499
 20
97.402840169270831
 30
0.0
 10
180.13784179687499
 20
97.803849283854163
 30
0.0
 10
179.80573459201386
 20
98.116319444444429
 30
0.0
 10
179.40403645833331
 20
98.116319444444429
 30
0.0
  0
SPLINE
  5
25E
100
AcDbEntity
  8
BORDER
 62
     7
100
AcDbSpline
210
0.0
220
0.0
230
1.0
 70
     8
 71
     3
 72
    11
 73
     7
 74
     0
 42
0.00000001
 43
0.00000001
 40
0.0
 40
0.0
 40
0.0
 40
0.0
 40
1.0
 40
1.0
 40
1.0
 40
2.0
 40
2.0
 40
2.0
 40
2.0
 10
179.11533745659722
 20
96.707964409722209
 30
0.0
 10
179.40713704427083
 20
96.707964409722209
 30
0.0
 10
179.64347059461804
 20
96.944297960069434
 30
0.0
 10
179.64347059461804
 20
97.236097547743043
 30
0.0
 10
179.64347059461804
 20
97.52755262586804
 30
0.0
 10
179.40713704427083
 20
97.763886176215266
 30
0.0
 10
179.11533745659722
 20
97.763886176215266
 30
0.0
  0
POLYLINE
  5
258
100
AcDbEntity
  8
BORDER
 62
     7
100
AcDb2dPolyline
 66
     1
 10
0.0
 20
0.0
 30
0.0
 70
     1
  0
VERTEX
  5
259
100
AcDbEntity
  8
BORDER
 62
     7
100
AcDbVertex
100
AcDb2dVertex
 10
179.59834
 20
97.508949
 30
0.0
  0
VERTEX
  5
25A
100
AcDbEntity
  8
BORDER
 62
     7
100
AcDbVertex
100
AcDb2dVertex
 10
180.084443
 20
97.761819
 30
0.0
  0
VERTEX
  5
25B
100
AcDbEntity
  8
BORDER
 62
     7
100
AcDbVertex
100
AcDb2dVertex
 10
179.604541
 20
98.092893
 30
0.0
  0
VERTEX
  5
25C
100
AcDbEntity
  8
BORDER
 62
     7
100
AcDbVertex
100
AcDb2dVertex
 10
179.384055
 20
97.735981
 30
0.0
  0
SEQEND
  5
25D
100
AcDbEntity
  8
BORDER
 62
     7
  0
HATCH
  5
257
100
AcDbEntity
  8
BORDER
 62
     7
100
AcDbHatch
 10
0.0
 20
0.0
 30
0.0
210
0.0
220
0.0
230
1.0
  2
SOLID
 70
     1
 71
     0
 91
        1
 92
        3
 72
     0
 73
     1
 93
        4
 10
179.38405490451387
 20
97.735980902777769
 10
179.60454101562499
 20
98.09289279513888
 10
180.08444281684027
 20
97.761819118923597
 10
179.59833984374998
 20
97.508949110243051
 97
        0
 75
     0
 76
     1
 98
        1
 10
0.0
 20
0.0
  0
POLYLINE
  5
251
100
AcDbEntity
  8
BORDER
 62
     7
100
AcDb2dPolyline
 66
     1
 10
0.0
 20
0.0
 30
0.0
 70
     1
  0
VERTEX
  5
252
100
AcDbEntity
  8
BORDER
 62
     7
100
AcDbVertex
100
AcDb2dVertex
 10
179.384055
 20
97.735981
 30
0.0
  0
VERTEX
  5
253
100
AcDbEntity
  8
BORDER
 62
     7
100
AcDbVertex
100
AcDb2dVertex
 10
179.604541
 20
98.092893
 30
0.0
  0
VERTEX
  5
254
100
AcDbEntity
  8
BORDER
 62
     7
100
AcDbVertex
100
AcDb2dVertex
 10
179.404036
 20
98.17902
 30
0.0
  0
VERTEX
  5
255
100
AcDbEntity
  8
BORDER
 62
     7
100
AcDbVertex
100
AcDb2dVertex
 10
179.115337
 20
97.70153
 30
0.0
  0
SEQEND
  5
256
100
AcDbEntity
  8
BORDER
 62
     7
  0
HATCH
  5
250
100
AcDbEntity
  8
BORDER
 62
     7
100
AcDbHatch
 10
0.0
 20
0.0
 30
0.0
210
0.0
220
0.0
230
1.0
  2
SOLID
 70
     1
 71
     0
 91
        1
 92
        3
 72
     0
 73
     1
 93
        4
 10
179.11533745659722
 20
97.701529947916654
 10
179.40403645833331
 20
98.179020182291652
 10
179.60454101562499
 20
98.09289279513888
 10
179.38405490451387
 20
97.735980902777769
 97
        0
 75
     0
 76
     1
 98
        1
 10
0.0
 20
0.0
  0
SPLINE
  5
24F
100
AcDbEntity
  8
BORDER
 62
     7
100
AcDbSpline
210
0.0
220
0.0
230
1.0
 70
     8
 71
     3
 72
    23
 73
    19
 74
     0
 42
0.00000001
 43
0.00000001
 40
0.0
 40
0.0
 40
0.0
 40
0.0
 40
1.0
 40
1.0
 40
1.0
 40
2.0
 40
2.0
 40
2.0
 40
3.0
 40
3.0
 40
3.0
 40
4.0
 40
4.0
 40
4.0
 40
5.0
 40
5.0
 40
5.0
 40
6.0
 40
6.0
 40
6.0
 40
6.0
 10
191.0405354817708
 20
97.985405815972214
 30
0.0
 10
190.8879177517361
 20
97.96163465711804
 30
0.0
 10
190.77078450520833
 20
97.837266710069429
 30
0.0
 10
190.75597059461805
 20
97.683615451388874
 30
0.0
 10
190.74115668402777
 20
97.524796549479163
 30
0.0
 10
190.82039388020831
 20
97.371834309895831
 30
0.0
 10
190.95854220920137
 20
97.292597113715274
 30
0.0
 10
191.18764105902775
 20
97.160994466145823
 30
0.0
 10
191.47048339843749
 20
97.16512858072916
 30
0.0
 10
191.69544813368054
 20
97.302587890624991
 30
0.0
 10
191.79259982638888
 20
97.361499023437489
 30
0.0
 10
191.86012369791666
 20
97.457961697048603
 30
0.0
 10
191.88286132812499
 20
97.568893771701383
 30
0.0
 10
191.90249837239583
 20
97.664322916666663
 30
0.0
 10
191.88286132812499
 20
97.763541666666654
 30
0.0
 10
191.82842881944444
 20
97.844156901041657
 30
0.0
 10
191.77434082031249
 20
97.925461154513883
 30
0.0
 10
191.68993598090276
 20
97.980927191840266
 30
0.0
 10
191.59416232638887
 20
97.998841688368046
 30
0.0
  0
LINE
  5
24E
100
AcDbEntity
  8
BORDER
 62
     7
100
AcDbLine
 10
180.884049
 20
95.579007
 30
0.0
 11
180.884049
 21
98.17902
 31
0.0
  0
LINE
  5
24D
100
AcDbEntity
  8
BORDER
 62
     7
100
AcDbLine
 10
180.226725
 20
98.17902
 30
0.0
 11
180.226725
 21
95.046395
 31
0.0
  0
POLYLINE
  5
247
100
AcDbEntity
  8
BORDER
 62
     7
100
AcDb2dPolyline
 66
     1
 10
0.0
 20
0.0
 30
0.0
  0
VERTEX
  5
248
100
AcDbEntity
  8
BORDER
 62
     7
100
AcDbVertex
100
AcDb2dVertex
 10
182.419873
 20
95.579007
 30
0.0
  0
VERTEX
  5
249
100
AcDbEntity
  8
BORDER
 62
     7
100
AcDbVertex
100
AcDb2dVertex
 10
183.343159
 20
98.17902
 30
0.0
  0
VERTEX
  5
24A
100
AcDbEntity
  8
BORDER
 62
     7
100
AcDbVertex
100
AcDb2dVertex
 10
184.047681
 20
98.17902
 30
0.0
  0
VERTEX
  5
24B
100
AcDbEntity
  8
BORDER
 62
     7
100
AcDbVertex
100
AcDb2dVertex
 10
185.081209
 20
95.268259
 30
0.0
  0
SEQEND
  5
24C
100
AcDbEntity
  8
BORDER
 62
     7
  0
LINE
  5
246
100
AcDbEntity
  8
BORDER
 62
     7
100
AcDbLine
 10
185.081209
 20
98.17902
 30
0.0
 11
185.081209
 21
95.268259
 31
0.0
  0
SPLINE
  5
245
100
AcDbEntity
  8
BORDER
 62
     7
100
AcDbSpline
210
0.0
220
0.0
230
1.0
 70
     8
 71
     3
 72
    50
 73
    46
 74
     0
 42
0.00000001
 43
0.00000001
 40
0.0
 40
0.0
 40
0.0
 40
0.0
 40
1.0
 40
1.0
 40
1.0
 40
2.0
 40
2.0
 40
2.0
 40
3.0
 40
3.0
 40
3.0
 40
4.0
 40
4.0
 40
4.0
 40
5.0
 40
5.0
 40
5.0
 40
6.0
 40
6.0
 40
6.0
 40
7.0
 40
7.0
 40
7.0
 40
8.0
 40
8.0
 40
8.0
 40
9.0
 40
9.0
 40
9.0
 40
10.0
 40
10.0
 40
10.0
 40
11.0
 40
11.0
 40
11.0
 40
12.0
 40
12.0
 40
12.0
 40
13.0
 40
13.0
 40
13.0
 40
14.0
 40
14.0
 40
14.0
 40
15.0
 40
15.0
 40
15.0
 40
15.0
 10
187.64022623697915
 20
95.987939453124994
 30
0.0
 10
187.64022623697915
 20
95.987939453124994
 30
0.0
 10
188.14217664930553
 20
95.987939453124994
 30
0.0
 10
188.14217664930553
 20
95.987939453124994
 30
0.0
 10
188.14424370659719
 20
95.779855685763877
 30
0.0
 10
188.27102322048609
 20
95.593476019965266
 30
0.0
 10
188.46360405815972
 20
95.514927842881931
 30
0.0
 10
188.75058051215277
 20
95.39779459635416
 30
0.0
 10
189.07820909288193
 20
95.440513780381934
 30
0.0
 10
189.32487792968749
 20
95.628271484374991
 30
0.0
 10
189.43787706163192
 20
95.714054361979152
 30
0.0
 10
189.49058702256943
 20
95.857714843749989
 30
0.0
 10
189.46095920138887
 20
95.996552191840266
 30
0.0
 10
189.43133138020832
 20
96.135045030381931
 30
0.0
 10
189.32418891059027
 20
96.244254557291654
 30
0.0
 10
189.18569607204859
 20
96.275949435763877
 30
0.0
 10
188.84325358072914
 20
96.355186631944434
 30
0.0
 10
188.50115559895832
 20
96.434768337673603
 30
0.0
 10
188.15871310763887
 20
96.515039062499994
 30
0.0
 10
187.80800238715275
 20
96.597721354166652
 30
0.0
 10
187.55788845486109
 20
96.908813476562486
 30
0.0
 10
187.55306532118053
 20
97.269514973958323
 30
0.0
 10
187.54755316840277
 20
97.668801540798597
 30
0.0
 10
187.79801161024304
 20
98.026746961805543
 30
0.0
 10
188.17456054687497
 20
98.159038628472217
 30
0.0
 10
188.5159695095486
 20
98.27892795138888
 30
0.0
 10
188.88390570746526
 20
98.299598524305551
 30
0.0
 10
189.23702799479165
 20
98.218638780381937
 30
0.0
 10
189.66353081597219
 20
98.120798068576377
 30
0.0
 10
189.97393391927082
 20
97.752861870659714
 30
0.0
 10
189.99873860677081
 20
97.315679253472211
 30
0.0
 10
189.99873860677081
 20
97.315679253472211
 30
0.0
 10
189.37931043836804
 20
97.315679253472211
 30
0.0
 10
189.37931043836804
 20
97.315679253472211
 30
0.0
 10
189.37242024739581
 20
97.499991861979154
 30
0.0
 10
189.25563151041666
 20
97.661911349826383
 30
0.0
 10
189.08337673611109
 20
97.727023654513886
 30
0.0
 10
188.87046983506943
 20
97.807294379340263
 30
0.0
 10
188.63482530381944
 20
97.800404188368049
 30
0.0
 10
188.42674153645831
 20
97.70773111979166
 30
0.0
 10
188.28066948784721
 20
97.642963324652769
 30
0.0
 10
188.19316406249999
 20
97.491379123263883
 30
0.0
 10
188.21038953993053
 20
97.332560221354157
 30
0.0
 10
188.2276150173611
 20
97.174085828993043
 30
0.0
 10
188.34474826388887
 20
97.044205729166663
 30
0.0
 10
188.50150010850692
 20
97.011821831597217
 30
0.0
  0
POLYLINE
  5
23F
100
AcDbEntity
  8
BORDER
 62
     7
100
AcDb2dPolyline
 66
     1
 10
0.0
 20
0.0
 30
0.0
 70
     1
  0
VERTEX
  5
240
100
AcDbEntity
  8
BORDER
 62
     7
100
AcDbVertex
100
AcDb2dVertex
 10
177.374186
 20
97.627805
 30
0.0
  0
VERTEX
  5
241
100
AcDbEntity
  8
BORDER
 62
     7
100
AcDbVertex
100
AcDb2dVertex
 10
176.908409
 20
97.408008
 30
0.0
  0
VERTEX
  5
242
100
AcDbEntity
  8
BORDER
 62
     7
100
AcDbVertex
100
AcDb2dVertex
 10
176.59215
 20
97.671902
 30
0.0
  0
VERTEX
  5
243
100
AcDbEntity
  8
BORDER
 62
     7
100
AcDbVertex
100
AcDb2dVertex
 10
176.750279
 20
98.120454
 30
0.0
  0
SEQEND
  5
244
100
AcDbEntity
  8
BORDER
 62
     7
  0
HATCH
  5
23E
100
AcDbEntity
  8
BORDER
 62
     7
100
AcDbHatch
 10
0.0
 20
0.0
 30
0.0
210
0.0
220
0.0
230
1.0
  2
SOLID
 70
     1
 71
     0
 91
        1
 92
        3
 72
     0
 73
     1
 93
        4
 10
177.37418619791666
 20
97.62780490451388
 10
176.90840928819443
 20
97.408007812499989
 10
176.59214952256943
 20
97.6719021267361
 10
176.75027940538192
 20
98.120453559027766
 97
        0
 75
     0
 76
     1
 98
        1
 10
0.0
 20
0.0
  0
POLYLINE
  5
238
100
AcDbEntity
  8
BORDER
 62
     7
100
AcDb2dPolyline
 66
     1
 10
0.0
 20
0.0
 30
0.0
 70
     1
  0
VERTEX
  5
239
100
AcDbEntity
  8
BORDER
 62
     7
100
AcDbVertex
100
AcDb2dVertex
 10
176.750279
 20
98.120454
 30
0.0
  0
VERTEX
  5
23A
100
AcDbEntity
  8
BORDER
 62
     7
100
AcDbVertex
100
AcDb2dVertex
 10
176.59215
 20
97.671902
 30
0.0
  0
VERTEX
  5
23B
100
AcDbEntity
  8
BORDER
 62
     7
100
AcDbVertex
100
AcDb2dVertex
 10
176.163235
 20
97.792136
 30
0.0
  0
VERTEX
  5
23C
100
AcDbEntity
  8
BORDER
 62
     7
100
AcDbVertex
100
AcDb2dVertex
 10
176.176326
 20
98.24241
 30
0.0
  0
SEQEND
  5
23D
100
AcDbEntity
  8
BORDER
 62
     7
  0
HATCH
  5
237
100
AcDbEntity
  8
BORDER
 62
     7
100
AcDbHatch
 10
0.0
 20
0.0
 30
0.0
210
0.0
220
0.0
230
1.0
  2
SOLID
 70
     1
 71
     0
 91
        1
 92
        3
 72
     0
 73
     1
 93
        4
 10
176.75027940538192
 20
98.120453559027766
 10
176.59214952256943
 20
97.6719021267361
 10
176.16323513454859
 20
97.792135959201374
 10
176.17632649739582
 20
98.242409939236097
 97
        0
 75
     0
 76
     1
 98
        1
 10
0.0
 20
0.0
  0
POLYLINE
  5
231
100
AcDbEntity
  8
BORDER
 62
     7
100
AcDb2dPolyline
 66
     1
 10
0.0
 20
0.0
 30
0.0
 70
     1
  0
VERTEX
  5
232
100
AcDbEntity
  8
BORDER
 62
     7
100
AcDbVertex
100
AcDb2dVertex
 10
175.342613
 20
97.950955
 30
0.0
  0
VERTEX
  5
233
100
AcDbEntity
  8
BORDER
 62
     7
100
AcDbVertex
100
AcDb2dVertex
 10
175.581014
 20
97.593698
 30
0.0
  0
VERTEX
  5
234
100
AcDbEntity
  8
BORDER
 62
     7
100
AcDbVertex
100
AcDb2dVertex
 10
175.369141
 20
97.156516
 30
0.0
  0
VERTEX
  5
235
100
AcDbEntity
  8
BORDER
 62
     7
100
AcDbVertex
100
AcDb2dVertex
 10
174.919556
 20
97.474498
 30
0.0
  0
SEQEND
  5
236
100
AcDbEntity
  8
BORDER
 62
     7
  0
HATCH
  5
230
100
AcDbEntity
  8
BORDER
 62
     7
100
AcDbHatch
 10
0.0
 20
0.0
 30
0.0
210
0.0
220
0.0
230
1.0
  2
SOLID
 70
     1
 71
     0
 91
        1
 92
        3
 72
     0
 73
     1
 93
        4
 10
175.34261338975693
 20
97.9509548611111
 10
175.58101399739581
 20
97.593698459201377
 10
175.36914062499997
 20
97.156860351562486
 10
174.91955566406247
 20
97.474498155381937
 97
        0
 75
     0
 76
     1
 98
        1
 10
0.0
 20
0.0
  0
SPLINE
  5
22F
100
AcDbEntity
  8
BORDER
 62
     7
100
AcDbSpline
210
0.0
220
0.0
230
1.0
 70
     8
 71
     3
 72
    11
 73
     7
 74
     0
 42
0.00000001
 43
0.00000001
 40
0.0
 40
0.0
 40
0.0
 40
0.0
 40
1.0
 40
1.0
 40
1.0
 40
2.0
 40
2.0
 40
2.0
 40
2.0
 10
177.5305935329861
 20
97.215771484374997
 30
0.0
 10
177.34662543402777
 20
97.808327907986097
 30
0.0
 10
176.79747721354164
 20
98.210370551215263
 30
0.0
 10
176.17701551649304
 20
98.206925455729163
 30
0.0
 10
175.55724283854164
 20
98.203135850694437
 30
0.0
 10
175.01188422309025
 20
97.794203016493043
 30
0.0
 10
174.83549533420137
 20
97.199579535590274
 30
0.0
  0
POLYLINE
  5
229
100
AcDbEntity
  8
BORDER
 62
     7
100
AcDb2dPolyline
 66
     1
 10
0.0
 20
0.0
 30
0.0
 70
     1
  0
VERTEX
  5
22A
100
AcDbEntity
  8
BORDER
 62
     7
100
AcDbVertex
100
AcDb2dVertex
 10
176.176326
 20
98.24241
 30
0.0
  0
VERTEX
  5
22B
100
AcDbEntity
  8
BORDER
 62
     7
100
AcDbVertex
100
AcDb2dVertex
 10
176.163235
 20
97.792136
 30
0.0
  0
VERTEX
  5
22C
100
AcDbEntity
  8
BORDER
 62
     7
100
AcDbVertex
100
AcDb2dVertex
 10
175.581014
 20
97.593698
 30
0.0
  0
VERTEX
  5
22D
100
AcDbEntity
  8
BORDER
 62
     7
100
AcDbVertex
100
AcDb2dVertex
 10
175.342613
 20
97.950955
 30
0.0
  0
SEQEND
  5
22E
100
AcDbEntity
  8
BORDER
 62
     7
  0
HATCH
  5
228
100
AcDbEntity
  8
BORDER
 62
     7
100
AcDbHatch
 10
0.0
 20
0.0
 30
0.0
210
0.0
220
0.0
230
1.0
  2
SOLID
 70
     1
 71
     0
 91
        1
 92
        3
 72
     0
 73
     1
 93
        4
 10
176.17632649739582
 20
98.242409939236097
 10
176.16323513454859
 20
97.792135959201374
 10
175.58101399739581
 20
97.593698459201377
 10
175.34261338975693
 20
97.9509548611111
 97
        0
 75
     0
 76
     1
 98
        1
 10
0.0
 20
0.0
  0
POLYLINE
  5
222
100
AcDbEntity
  8
BORDER
 62
     7
100
AcDb2dPolyline
 66
     1
 10
0.0
 20
0.0
 30
0.0
 70
     1
  0
VERTEX
  5
223
100
AcDbEntity
  8
BORDER
 62
     7
100
AcDbVertex
100
AcDb2dVertex
 10
169.514201
 20
98.17902
 30
0.0
  0
VERTEX
  5
224
100
AcDbEntity
  8
BORDER
 62
     7
100
AcDbVertex
100
AcDb2dVertex
 10
172.14522
 20
98.17902
 30
0.0
  0
VERTEX
  5
225
100
AcDbEntity
  8
BORDER
 62
     7
100
AcDbVertex
100
AcDb2dVertex
 10
172.14522
 20
97.661911
 30
0.0
  0
VERTEX
  5
226
100
AcDbEntity
  8
BORDER
 62
     7
100
AcDbVertex
100
AcDb2dVertex
 10
169.514201
 20
97.661911
 30
0.0
  0
SEQEND
  5
227
100
AcDbEntity
  8
BORDER
 62
     7
  0
HATCH
  5
221
100
AcDbEntity
  8
BORDER
 62
     7
100
AcDbHatch
 10
0.0
 20
0.0
 30
0.0
210
0.0
220
0.0
230
1.0
  2
SOLID
 70
     1
 71
     0
 91
        1
 92
        3
 72
     0
 73
     1
 93
        4
 10
169.51420084635416
 20
98.179020182291652
 10
172.14522026909719
 20
98.179020182291652
 10
172.14522026909719
 20
97.661911349826383
 10
169.51420084635416
 20
97.661911349826383
 97
        0
 75
     0
 76
     1
 98
        1
 10
0.0
 20
0.0
  0
SPLINE
  5
220
100
AcDbEntity
  8
BORDER
 62
     7
100
AcDbSpline
210
0.0
220
0.0
230
1.0
 70
     8
 71
     3
 72
    23
 73
    19
 74
     0
 42
0.00000001
 43
0.00000001
 40
0.0
 40
0.0
 40
0.0
 40
0.0
 40
1.0
 40
1.0
 40
1.0
 40
2.0
 40
2.0
 40
2.0
 40
3.0
 40
3.0
 40
3.0
 40
4.0
 40
4.0
 40
4.0
 40
5.0
 40
5.0
 40
5.0
 40
6.0
 40
6.0
 40
6.0
 40
6.0
 10
175.4159939236111
 20
97.312234157986097
 30
0.0
 10
175.20377604166666
 20
96.860582139756929
 30
0.0
 10
175.20928819444444
 20
96.337272135416654
 30
0.0
 10
175.43046332465275
 20
95.890098741319434
 30
0.0
 10
175.57240125868054
 20
95.603466796874997
 30
0.0
 10
175.86523437499997
 20
95.421910264756931
 30
0.0
 10
176.18562825520831
 20
95.422943793402766
 30
0.0
 10
176.50567762586803
 20
95.4239773220486
 30
0.0
 10
176.79747721354164
 20
95.606911892361097
 30
0.0
 10
176.93769259982636
 20
95.894577365451383
 30
0.0
 10
177.15611165364581
 20
96.343817816840271
 30
0.0
 10
177.15783420138888
 20
96.86816134982638
 30
0.0
 10
176.9414822048611
 20
97.318435329861103
 30
0.0
 10
176.80092230902775
 20
97.612646484374991
 30
0.0
 10
176.50326605902777
 20
97.799026150173603
 30
0.0
 10
176.17701551649304
 20
97.797648111979157
 30
0.0
 10
175.85076497395832
 20
97.796270073784711
 30
0.0
 10
175.55483127170137
 20
97.60747884114582
 30
0.0
 10
175.4159939236111
 20
97.312234157986097
 30
0.0
  0
POLYLINE
  5
21A
100
AcDbEntity
  8
BORDER
 62
     7
100
AcDb2dPolyline
 66
     1
 10
0.0
 20
0.0
 30
0.0
 70
     1
  0
VERTEX
  5
21B
100
AcDbEntity
  8
BORDER
 62
     7
100
AcDbVertex
100
AcDb2dVertex
 10
172.14522
 20
98.17902
 30
0.0
  0
VERTEX
  5
21C
100
AcDbEntity
  8
BORDER
 62
     7
100
AcDbVertex
100
AcDb2dVertex
 10
172.771883
 20
98.17902
 30
0.0
  0
VERTEX
  5
21D
100
AcDbEntity
  8
BORDER
 62
     7
100
AcDbVertex
100
AcDb2dVertex
 10
172.771883
 20
95.046395
 30
0.0
  0
VERTEX
  5
21E
100
AcDbEntity
  8
BORDER
 62
     7
100
AcDbVertex
100
AcDb2dVertex
 10
172.14522
 20
95.046395
 30
0.0
  0
SEQEND
  5
21F
100
AcDbEntity
  8
BORDER
 62
     7
  0
HATCH
  5
219
100
AcDbEntity
  8
BORDER
 62
     7
100
AcDbHatch
 10
0.0
 20
0.0
 30
0.0
210
0.0
220
0.0
230
1.0
  2
SOLID
 70
     1
 71
     0
 91
        1
 92
        3
 72
     0
 73
     1
 93
        4
 10
172.14522026909719
 20
98.179020182291652
 10
172.77188313802083
 20
98.179020182291652
 10
172.77188313802083
 20
95.046394856770831
 10
172.14522026909719
 20
95.046394856770831
 97
        0
 75
     0
 76
     1
 98
        1
 10
0.0
 20
0.0
  0
POLYLINE
  5
213
100
AcDbEntity
  8
BORDER
 62
     7
100
AcDb2dPolyline
 66
     1
 10
0.0
 20
0.0
 30
0.0
 70
     1
  0
VERTEX
  5
214
100
AcDbEntity
  8
BORDER
 62
     7
100
AcDbVertex
100
AcDb2dVertex
 10
174.071718
 20
98.17902
 30
0.0
  0
VERTEX
  5
215
100
AcDbEntity
  8
BORDER
 62
     7
100
AcDbVertex
100
AcDb2dVertex
 10
174.698381
 20
98.17902
 30
0.0
  0
VERTEX
  5
216
100
AcDbEntity
  8
BORDER
 62
     7
100
AcDbVertex
100
AcDb2dVertex
 10
174.698381
 20
95.046395
 30
0.0
  0
VERTEX
  5
217
100
AcDbEntity
  8
BORDER
 62
     7
100
AcDbVertex
100
AcDb2dVertex
 10
174.071718
 20
95.046395
 30
0.0
  0
SEQEND
  5
218
100
AcDbEntity
  8
BORDER
 62
     7
  0
HATCH
  5
212
100
AcDbEntity
  8
BORDER
 62
     7
100
AcDbHatch
 10
0.0
 20
0.0
 30
0.0
210
0.0
220
0.0
230
1.0
  2
SOLID
 70
     1
 71
     0
 91
        1
 92
        3
 72
     0
 73
     1
 93
        4
 10
174.07171766493053
 20
98.179020182291652
 10
174.69838053385416
 20
98.179020182291652
 10
174.69838053385416
 20
95.046394856770831
 10
174.07171766493053
 20
95.046394856770831
 97
        0
 75
     0
 76
     1
 98
        1
 10
0.0
 20
0.0
  0
POLYLINE
  5
20C
100
AcDbEntity
  8
BORDER
 62
     7
100
AcDb2dPolyline
 66
     1
 10
0.0
 20
0.0
 30
0.0
 70
     1
  0
VERTEX
  5
20D
100
AcDbEntity
  8
BORDER
 62
     7
100
AcDbVertex
100
AcDb2dVertex
 10
177.675288
 20
95.046395
 30
0.0
  0
VERTEX
  5
20E
100
AcDbEntity
  8
BORDER
 62
     7
100
AcDbVertex
100
AcDb2dVertex
 10
177.675288
 20
98.17902
 30
0.0
  0
VERTEX
  5
20F
100
AcDbEntity
  8
BORDER
 62
     7
100
AcDbVertex
100
AcDb2dVertex
 10
178.315042
 20
98.110807
 30
0.0
  0
VERTEX
  5
210
100
AcDbEntity
  8
BORDER
 62
     7
100
AcDbVertex
100
AcDb2dVertex
 10
178.315042
 20
95.046395
 30
0.0
  0
SEQEND
  5
211
100
AcDbEntity
  8
BORDER
 62
     7
  0
HATCH
  5
20B
100
AcDbEntity
  8
BORDER
 62
     7
100
AcDbHatch
 10
0.0
 20
0.0
 30
0.0
210
0.0
220
0.0
230
1.0
  2
SOLID
 70
     1
 71
     0
 91
        1
 92
        3
 72
     0
 73
     1
 93
        4
 10
177.67528754340276
 20
95.046394856770831
 10
177.67528754340276
 20
98.179020182291652
 10
178.3150417751736
 20
98.11080729166666
 10
178.3150417751736
 20
95.046394856770831
 97
        0
 75
     0
 76
     1
 98
        1
 10
0.0
 20
0.0
  0
LINE
  5
20A
100
AcDbEntity
  8
BORDER
 62
     7
100
AcDbLine
 10
180.226725
 20
95.046395
 30
0.0
 11
182.450534
 21
95.046395
 31
0.0
  0
LINE
  5
209
100
AcDbEntity
  8
BORDER
 62
     7
100
AcDbLine
 10
182.419873
 20
95.579007
 30
0.0
 11
180.884049
 21
95.579007
 31
0.0
  0
POLYLINE
  5
203
100
AcDbEntity
  8
BORDER
 62
     7
100
AcDb2dPolyline
 66
     1
 10
0.0
 20
0.0
 30
0.0
 70
     1
  0
VERTEX
  5
204
100
AcDbEntity
  8
BORDER
 62
     7
100
AcDbVertex
100
AcDb2dVertex
 10
170.516724
 20
95.046395
 30
0.0
  0
VERTEX
  5
205
100
AcDbEntity
  8
BORDER
 62
     7
100
AcDbVertex
100
AcDb2dVertex
 10
171.143042
 20
95.046395
 30
0.0
  0
VERTEX
  5
206
100
AcDbEntity
  8
BORDER
 62
     7
100
AcDbVertex
100
AcDb2dVertex
 10
171.143042
 20
97.661911
 30
0.0
  0
VERTEX
  5
207
100
AcDbEntity
  8
BORDER
 62
     7
100
AcDbVertex
100
AcDb2dVertex
 10
170.516724
 20
97.661911
 30
0.0
  0
SEQEND
  5
208
100
AcDbEntity
  8
BORDER
 62
     7
  0
HATCH
  5
202
100
AcDbEntity
  8
BORDER
 62
     7
100
AcDbHatch
 10
0.0
 20
0.0
 30
0.0
210
0.0
220
0.0
230
1.0
  2
SOLID
 70
     1
 71
     0
 91
        1
 92
        3
 72
     0
 73
     1
 93
        4
 10
170.51672363281247
 20
97.661911349826383
 10
171.14304199218748
 20
97.661911349826383
 10
171.14304199218748
 20
95.046394856770831
 10
170.51672363281247
 20
95.046394856770831
 97
        0
 75
     0
 76
     1
 98
        1
 10
0.0
 20
0.0
  0
POLYLINE
  5
1FC
100
AcDbEntity
  8
BORDER
 62
     7
100
AcDb2dPolyline
 66
     1
 10
0.0
 20
0.0
 30
0.0
 70
     1
  0
VERTEX
  5
1FD
100
AcDbEntity
  8
BORDER
 62
     7
100
AcDbVertex
100
AcDb2dVertex
 10
174.071718
 20
96.957045
 30
0.0
  0
VERTEX
  5
1FE
100
AcDbEntity
  8
BORDER
 62
     7
100
AcDbVertex
100
AcDb2dVertex
 10
172.771883
 20
96.957045
 30
0.0
  0
VERTEX
  5
1FF
100
AcDbEntity
  8
BORDER
 62
     7
100
AcDbVertex
100
AcDb2dVertex
 10
172.771883
 20
96.425122
 30
0.0
  0
VERTEX
  5
200
100
AcDbEntity
  8
BORDER
 62
     7
100
AcDbVertex
100
AcDb2dVertex
 10
174.071718
 20
96.425122
 30
0.0
  0
SEQEND
  5
201
100
AcDbEntity
  8
BORDER
 62
     7
  0
HATCH
  5
1FB
100
AcDbEntity
  8
BORDER
 62
     7
100
AcDbHatch
 10
0.0
 20
0.0
 30
0.0
210
0.0
220
0.0
230
1.0
  2
SOLID
 70
     1
 71
     0
 91
        1
 92
        3
 72
     0
 73
     1
 93
        4
 10
174.07171766493053
 20
96.425122070312497
 10
172.77188313802083
 20
96.425122070312497
 10
172.77188313802083
 20
96.957044813368043
 10
174.07171766493053
 20
96.957044813368043
 97
        0
 75
     0
 76
     1
 98
        1
 10
0.0
 20
0.0
  0
SPLINE
  5
1FA
100
AcDbEntity
  8
BORDER
 62
     7
100
AcDbSpline
210
0.0
220
0.0
230
1.0
 70
     8
 71
     3
 72
     8
 73
     4
 74
     0
 42
0.00000001
 43
0.00000001
 40
0.0
 40
0.0
 40
0.0
 40
0.0
 40
1.0
 40
1.0
 40
1.0
 40
1.0
 10
177.55367567274303
 20
96.110584852430549
 30
0.0
 10
177.64979383680554
 20
96.474042426215263
 30
0.0
 10
177.64152560763887
 20
96.856792534722217
 30
0.0
 10
177.5305935329861
 20
97.215771484374997
 30
0.0
  0
POLYLINE
  5
1F4
100
AcDbEntity
  8
BORDER
 62
     7
100
AcDb2dPolyline
 66
     1
 10
0.0
 20
0.0
 30
0.0
 70
     1
  0
VERTEX
  5
1F5
100
AcDbEntity
  8
BORDER
 62
     7
100
AcDbVertex
100
AcDb2dVertex
 10
177.638081
 20
96.739659
 30
0.0
  0
VERTEX
  5
1F6
100
AcDbEntity
  8
BORDER
 62
     7
100
AcDbVertex
100
AcDb2dVertex
 10
177.093066
 20
96.792369
 30
0.0
  0
VERTEX
  5
1F7
100
AcDbEntity
  8
BORDER
 62
     7
100
AcDbVertex
100
AcDb2dVertex
 10
176.908409
 20
97.408008
 30
0.0
  0
VERTEX
  5
1F8
100
AcDbEntity
  8
BORDER
 62
     7
100
AcDbVertex
100
AcDb2dVertex
 10
177.374186
 20
97.627805
 30
0.0
  0
SEQEND
  5
1F9
100
AcDbEntity
  8
BORDER
 62
     7
  0
HATCH
  5
1F3
100
AcDbEntity
  8
BORDER
 62
     7
100
AcDbHatch
 10
0.0
 20
0.0
 30
0.0
210
0.0
220
0.0
230
1.0
  2
SOLID
 70
     1
 71
     0
 91
        1
 92
        3
 72
     0
 73
     1
 93
        4
 10
177.63808051215275
 20
96.739659288194431
 10
177.09306640624999
 20
96.792369249131937
 10
176.90840928819443
 20
97.408007812499989
 10
177.37418619791666
 20
97.62780490451388
 97
        0
 75
     0
 76
     1
 98
        1
 10
0.0
 20
0.0
  0
SPLINE
  5
1F2
100
AcDbEntity
  8
BORDER
 62
     7
100
AcDbSpline
210
0.0
220
0.0
230
1.0
 70
     8
 71
     3
 72
     8
 73
     4
 74
     0
 42
0.00000001
 43
0.00000001
 40
0.0
 40
0.0
 40
0.0
 40
0.0
 40
1.0
 40
1.0
 40
1.0
 40
1.0
 10
174.83549533420137
 20
97.199579535590274
 30
0.0
 10
174.72731933593749
 20
96.835432942708323
 30
0.0
 10
174.72525227864583
 20
96.447515190972211
 30
0.0
 10
174.83032769097221
 20
96.08233506944444
 30
0.0
  0
POLYLINE
  5
1EC
100
AcDbEntity
  8
BORDER
 62
     7
100
AcDb2dPolyline
 66
     1
 10
0.0
 20
0.0
 30
0.0
 70
     1
  0
VERTEX
  5
1ED
100
AcDbEntity
  8
BORDER
 62
     7
100
AcDbVertex
100
AcDb2dVertex
 10
174.919556
 20
97.474498
 30
0.0
  0
VERTEX
  5
1EE
100
AcDbEntity
  8
BORDER
 62
     7
100
AcDbVertex
100
AcDb2dVertex
 10
175.369141
 20
97.156516
 30
0.0
  0
VERTEX
  5
1EF
100
AcDbEntity
  8
BORDER
 62
     7
100
AcDbVertex
100
AcDb2dVertex
 10
175.247184
 20
96.563615
 30
0.0
  0
VERTEX
  5
1F0
100
AcDbEntity
  8
BORDER
 62
     7
100
AcDbVertex
100
AcDb2dVertex
 10
174.737655
 20
96.607712
 30
0.0
  0
SEQEND
  5
1F1
100
AcDbEntity
  8
BORDER
 62
     7
  0
HATCH
  5
1EB
100
AcDbEntity
  8
BORDER
 62
     7
100
AcDbHatch
 10
0.0
 20
0.0
 30
0.0
210
0.0
220
0.0
230
1.0
  2
SOLID
 70
     1
 71
     0
 91
        1
 92
        3
 72
     0
 73
     1
 93
        4
 10
174.91955566406247
 20
97.474498155381937
 10
175.36914062499997
 20
97.156860351562486
 10
175.24718424479164
 20
96.563614908854163
 10
174.73765462239581
 20
96.607712131076383
 97
        0
 75
     0
 76
     1
 98
        1
 10
0.0
 20
0.0
  0
POLYLINE
  5
1E5
100
AcDbEntity
  8
BORDER
 62
     7
100
AcDb2dPolyline
 66
     1
 10
0.0
 20
0.0
 30
0.0
 70
     1
  0
VERTEX
  5
1E6
100
AcDbEntity
  8
BORDER
 62
     7
100
AcDbVertex
100
AcDb2dVertex
 10
176.187695
 20
95.033648
 30
0.0
  0
VERTEX
  5
1E7
100
AcDbEntity
  8
BORDER
 62
     7
100
AcDbVertex
100
AcDb2dVertex
 10
176.187695
 20
95.429489
 30
0.0
  0
VERTEX
  5
1E8
100
AcDbEntity
  8
BORDER
 62
     7
100
AcDbVertex
100
AcDb2dVertex
 10
176.785419
 20
95.613802
 30
0.0
  0
VERTEX
  5
1E9
100
AcDbEntity
  8
BORDER
 62
     7
100
AcDbVertex
100
AcDb2dVertex
 10
177.005216
 20
95.314768
 30
0.0
  0
SEQEND
  5
1EA
100
AcDbEntity
  8
BORDER
 62
     7
  0
HATCH
  5
1E4
100
AcDbEntity
  8
BORDER
 62
     7
100
AcDbHatch
 10
0.0
 20
0.0
 30
0.0
210
0.0
220
0.0
230
1.0
  2
SOLID
 70
     1
 71
     0
 91
        1
 92
        3
 72
     0
 73
     1
 93
        4
 10
176.18769531249998
 20
95.033648003472209
 10
176.18769531249998
 20
95.429489474826383
 10
176.78541937934025
 20
95.613802083333326
 10
177.00521647135415
 20
95.314767795138877
 97
        0
 75
     0
 76
     1
 98
        1
 10
0.0
 20
0.0
  0
POLYLINE
  5
1DE
100
AcDbEntity
  8
BORDER
 62
     7
100
AcDb2dPolyline
 66
     1
 10
0.0
 20
0.0
 30
0.0
 70
     1
  0
VERTEX
  5
1DF
100
AcDbEntity
  8
BORDER
 62
     7
100
AcDbVertex
100
AcDb2dVertex
 10
174.966064
 20
95.710954
 30
0.0
  0
VERTEX
  5
1E0
100
AcDbEntity
  8
BORDER
 62
     7
100
AcDbVertex
100
AcDb2dVertex
 10
175.414616
 20
95.878041
 30
0.0
  0
VERTEX
  5
1E1
100
AcDbEntity
  8
BORDER
 62
     7
100
AcDbVertex
100
AcDb2dVertex
 10
175.853866
 20
95.464629
 30
0.0
  0
VERTEX
  5
1E2
100
AcDbEntity
  8
BORDER
 62
     7
100
AcDbVertex
100
AcDb2dVertex
 10
175.625111
 20
95.139068
 30
0.0
  0
SEQEND
  5
1E3
100
AcDbEntity
  8
BORDER
 62
     7
  0
HATCH
  5
1DD
100
AcDbEntity
  8
BORDER
 62
     7
100
AcDbHatch
 10
0.0
 20
0.0
 30
0.0
210
0.0
220
0.0
230
1.0
  2
SOLID
 70
     1
 71
     0
 91
        1
 92
        3
 72
     0
 73
     1
 93
        4
 10
174.96606445312497
 20
95.710953776041663
 10
175.41461588541665
 20
95.878040907118049
 10
175.85386555989581
 20
95.46462944878472
 10
175.62511121961805
 20
95.13906792534722
 97
        0
 75
     0
 76
     1
 98
        1
 10
0.0
 20
0.0
  0
POLYLINE
  5
1D7
100
AcDbEntity
  8
BORDER
 62
     7
100
AcDb2dPolyline
 66
     1
 10
0.0
 20
0.0
 30
0.0
 70
     1
  0
VERTEX
  5
1D8
100
AcDbEntity
  8
BORDER
 62
     7
100
AcDbVertex
100
AcDb2dVertex
 10
175.625111
 20
95.139068
 30
0.0
  0
VERTEX
  5
1D9
100
AcDbEntity
  8
BORDER
 62
     7
100
AcDbVertex
100
AcDb2dVertex
 10
175.853866
 20
95.464629
 30
0.0
  0
VERTEX
  5
1DA
100
AcDbEntity
  8
BORDER
 62
     7
100
AcDbVertex
100
AcDb2dVertex
 10
176.187695
 20
95.429489
 30
0.0
  0
VERTEX
  5
1DB
100
AcDbEntity
  8
BORDER
 62
     7
100
AcDbVertex
100
AcDb2dVertex
 10
176.187695
 20
95.033648
 30
0.0
  0
SEQEND
  5
1DC
100
AcDbEntity
  8
BORDER
 62
     7
  0
HATCH
  5
1D6
100
AcDbEntity
  8
BORDER
 62
     7
100
AcDbHatch
 10
0.0
 20
0.0
 30
0.0
210
0.0
220
0.0
230
1.0
  2
SOLID
 70
     1
 71
     0
 91
        1
 92
        3
 72
     0
 73
     1
 93
        4
 10
175.62511121961805
 20
95.13906792534722
 10
175.85386555989581
 20
95.46462944878472
 10
176.18769531249998
 20
95.429489474826383
 10
176.18769531249998
 20
95.033648003472209
 97
        0
 75
     0
 76
     1
 98
        1
 10
0.0
 20
0.0
  0
SPLINE
  5
1D5
100
AcDbEntity
  8
BORDER
 62
     7
100
AcDbSpline
210
0.0
220
0.0
230
1.0
 70
     8
 71
     3
 72
    11
 73
     7
 74
     0
 42
0.00000001
 43
0.00000001
 40
0.0
 40
0.0
 40
0.0
 40
0.0
 40
1.0
 40
1.0
 40
1.0
 40
2.0
 40
2.0
 40
2.0
 40
2.0
 10
174.83032769097221
 20
96.08233506944444
 30
0.0
 10
175.00568305121527
 20
95.471175130208323
 30
0.0
 10
175.56757812499998
 20
95.052596028645823
 30
0.0
 10
176.20319824218748
 20
95.059486219618051
 30
0.0
 10
176.83847384982639
 20
95.066031901041654
 30
0.0
 10
177.3914116753472
 20
95.496324327256943
 30
0.0
 10
177.55367567274303
 20
96.110584852430549
 30
0.0
  0
POLYLINE
  5
1CF
100
AcDbEntity
  8
BORDER
 62
     7
100
AcDb2dPolyline
 66
     1
 10
0.0
 20
0.0
 30
0.0
 70
     1
  0
VERTEX
  5
1D0
100
AcDbEntity
  8
BORDER
 62
     7
100
AcDbVertex
100
AcDb2dVertex
 10
174.737655
 20
96.607712
 30
0.0
  0
VERTEX
  5
1D1
100
AcDbEntity
  8
BORDER
 62
     7
100
AcDbVertex
100
AcDb2dVertex
 10
175.247184
 20
96.563615
 30
0.0
  0
VERTEX
  5
1D2
100
AcDbEntity
  8
BORDER
 62
     7
100
AcDbVertex
100
AcDb2dVertex
 10
175.414616
 20
95.878041
 30
0.0
  0
VERTEX
  5
1D3
100
AcDbEntity
  8
BORDER
 62
     7
100
AcDbVertex
100
AcDb2dVertex
 10
174.966064
 20
95.710954
 30
0.0
  0
SEQEND
  5
1D4
100
AcDbEntity
  8
BORDER
 62
     7
  0
HATCH
  5
1CE
100
AcDbEntity
  8
BORDER
 62
     7
100
AcDbHatch
 10
0.0
 20
0.0
 30
0.0
210
0.0
220
0.0
230
1.0
  2
SOLID
 70
     1
 71
     0
 91
        1
 92
        3
 72
     0
 73
     1
 93
        4
 10
174.73765462239581
 20
96.607712131076383
 10
175.24718424479164
 20
96.563614908854163
 10
175.41461588541665
 20
95.878040907118049
 10
174.96606445312497
 20
95.710953776041663
 97
        0
 75
     0
 76
     1
 98
        1
 10
0.0
 20
0.0
  0
POLYLINE
  5
1C8
100
AcDbEntity
  8
BORDER
 62
     7
100
AcDb2dPolyline
 66
     1
 10
0.0
 20
0.0
 30
0.0
 70
     1
  0
VERTEX
  5
1C9
100
AcDbEntity
  8
BORDER
 62
     7
100
AcDbVertex
100
AcDb2dVertex
 10
177.005216
 20
95.314768
 30
0.0
  0
VERTEX
  5
1CA
100
AcDbEntity
  8
BORDER
 62
     7
100
AcDbVertex
100
AcDb2dVertex
 10
176.785419
 20
95.613802
 30
0.0
  0
VERTEX
  5
1CB
100
AcDbEntity
  8
BORDER
 62
     7
100
AcDbVertex
100
AcDb2dVertex
 10
177.075496
 20
96.194301
 30
0.0
  0
VERTEX
  5
1CC
100
AcDbEntity
  8
BORDER
 62
     7
100
AcDbVertex
100
AcDb2dVertex
 10
177.444811
 20
95.807416
 30
0.0
  0
SEQEND
  5
1CD
100
AcDbEntity
  8
BORDER
 62
     7
  0
HATCH
  5
1C7
100
AcDbEntity
  8
BORDER
 62
     7
100
AcDbHatch
 10
0.0
 20
0.0
 30
0.0
210
0.0
220
0.0
230
1.0
  2
SOLID
 70
     1
 71
     0
 91
        1
 92
        3
 72
     0
 73
     1
 93
        4
 10
177.00521647135415
 20
95.314767795138877
 10
176.78541937934025
 20
95.613802083333326
 10
177.07549641927082
 20
96.19430067274304
 10
177.44481065538193
 20
95.807416449652763
 97
        0
 75
     0
 76
     1
 98
        1
 10
0.0
 20
0.0
  0
POLYLINE
  5
1C1
100
AcDbEntity
  8
BORDER
 62
     7
100
AcDb2dPolyline
 66
     1
 10
0.0
 20
0.0
 30
0.0
 70
     1
  0
VERTEX
  5
1C2
100
AcDbEntity
  8
BORDER
 62
     7
100
AcDbVertex
100
AcDb2dVertex
 10
177.444811
 20
95.807416
 30
0.0
  0
VERTEX
  5
1C3
100
AcDbEntity
  8
BORDER
 62
     7
100
AcDbVertex
100
AcDb2dVertex
 10
177.075496
 20
96.194301
 30
0.0
  0
VERTEX
  5
1C4
100
AcDbEntity
  8
BORDER
 62
     7
100
AcDbVertex
100
AcDb2dVertex
 10
177.093066
 20
96.792369
 30
0.0
  0
VERTEX
  5
1C5
100
AcDbEntity
  8
BORDER
 62
     7
100
AcDbVertex
100
AcDb2dVertex
 10
177.638081
 20
96.739659
 30
0.0
  0
SEQEND
  5
1C6
100
AcDbEntity
  8
BORDER
 62
     7
  0
HATCH
  5
1C0
100
AcDbEntity
  8
BORDER
 62
     7
100
AcDbHatch
 10
0.0
 20
0.0
 30
0.0
210
0.0
220
0.0
230
1.0
  2
SOLID
 70
     1
 71
     0
 91
        1
 92
        3
 72
     0
 73
     1
 93
        4
 10
177.44481065538193
 20
95.807416449652763
 10
177.07549641927082
 20
96.19430067274304
 10
177.09306640624999
 20
96.792369249131937
 10
177.63808051215275
 20
96.739659288194431
 97
        0
 75
     0
 76
     1
 98
        1
 10
0.0
 20
0.0
  0
POLYLINE
  5
1BA
100
AcDbEntity
  8
BORDER
 62
     7
100
AcDb2dPolyline
 66
     1
 10
0.0
 20
0.0
 30
0.0
 70
     1
  0
VERTEX
  5
1BB
100
AcDbEntity
  8
BORDER
 62
     7
100
AcDbVertex
100
AcDb2dVertex
 10
179.663108
 20
97.249189
 30
0.0
  0
VERTEX
  5
1BC
100
AcDbEntity
  8
BORDER
 62
     7
100
AcDbVertex
100
AcDb2dVertex
 10
180.149211
 20
97.093471
 30
0.0
  0
VERTEX
  5
1BD
100
AcDbEntity
  8
BORDER
 62
     7
100
AcDbVertex
100
AcDb2dVertex
 10
180.084443
 20
97.761819
 30
0.0
  0
VERTEX
  5
1BE
100
AcDbEntity
  8
BORDER
 62
     7
100
AcDbVertex
100
AcDb2dVertex
 10
179.59834
 20
97.508949
 30
0.0
  0
SEQEND
  5
1BF
100
AcDbEntity
  8
BORDER
 62
     7
  0
HATCH
  5
1B9
100
AcDbEntity
  8
BORDER
 62
     7
100
AcDbHatch
 10
0.0
 20
0.0
 30
0.0
210
0.0
220
0.0
230
1.0
  2
SOLID
 70
     1
 71
     0
 91
        1
 92
        3
 72
     0
 73
     1
 93
        4
 10
179.59833984374998
 20
97.508949110243051
 10
180.08444281684027
 20
97.761819118923597
 10
180.14921061197916
 20
97.09347059461804
 10
179.66310763888887
 20
97.249188910590263
 97
        0
 75
     0
 76
     1
 98
        1
 10
0.0
 20
0.0
  0
POLYLINE
  5
1B3
100
AcDbEntity
  8
BORDER
 62
     7
100
AcDb2dPolyline
 66
     1
 10
0.0
 20
0.0
 30
0.0
 70
     1
  0
VERTEX
  5
1B4
100
AcDbEntity
  8
BORDER
 62
     7
100
AcDbVertex
100
AcDb2dVertex
 10
178.315042
 20
96.770321
 30
0.0
  0
VERTEX
  5
1B5
100
AcDbEntity
  8
BORDER
 62
     7
100
AcDbVertex
100
AcDb2dVertex
 10
178.315042
 20
96.298343
 30
0.0
  0
VERTEX
  5
1B6
100
AcDbEntity
  8
BORDER
 62
     7
100
AcDbVertex
100
AcDb2dVertex
 10
178.925168
 20
96.298343
 30
0.0
  0
VERTEX
  5
1B7
100
AcDbEntity
  8
BORDER
 62
     7
100
AcDbVertex
100
AcDb2dVertex
 10
179.115337
 20
96.770321
 30
0.0
  0
SEQEND
  5
1B8
100
AcDbEntity
  8
BORDER
 62
     7
  0
HATCH
  5
1B2
100
AcDbEntity
  8
BORDER
 62
     7
100
AcDbHatch
 10
0.0
 20
0.0
 30
0.0
210
0.0
220
0.0
230
1.0
  2
SOLID
 70
     1
 71
     0
 91
        1
 92
        3
 72
     0
 73
     1
 93
        4
 10
179.11533745659722
 20
96.77032063802082
 10
178.92516818576388
 20
96.298342556423606
 10
178.3150417751736
 20
96.298342556423606
 10
178.3150417751736
 20
96.77032063802082
 97
        0
 75
     0
 76
     1
 98
        1
 10
0.0
 20
0.0
  0
POLYLINE
  5
1AC
100
AcDbEntity
  8
BORDER
 62
     7
100
AcDb2dPolyline
 66
     1
 10
0.0
 20
0.0
 30
0.0
 70
     1
  0
VERTEX
  5
1AD
100
AcDbEntity
  8
BORDER
 62
     7
100
AcDbVertex
100
AcDb2dVertex
 10
179.198364
 20
96.321769
 30
0.0
  0
VERTEX
  5
1AE
100
AcDbEntity
  8
BORDER
 62
     7
100
AcDbVertex
100
AcDb2dVertex
 10
179.505667
 20
96.539499
 30
0.0
  0
VERTEX
  5
1AF
100
AcDbEntity
  8
BORDER
 62
     7
100
AcDbVertex
100
AcDb2dVertex
 10
179.115337
 20
96.770321
 30
0.0
  0
VERTEX
  5
1B0
100
AcDbEntity
  8
BORDER
 62
     7
100
AcDbVertex
100
AcDb2dVertex
 10
178.925168
 20
96.298343
 30
0.0
  0
SEQEND
  5
1B1
100
AcDbEntity
  8
BORDER
 62
     7
  0
HATCH
  5
1AB
100
AcDbEntity
  8
BORDER
 62
     7
100
AcDbHatch
 10
0.0
 20
0.0
 30
0.0
210
0.0
220
0.0
230
1.0
  2
SOLID
 70
     1
 71
     0
 91
        1
 92
        3
 72
     0
 73
     1
 93
        4
 10
178.92516818576388
 20
96.298342556423606
 10
179.11533745659722
 20
96.77032063802082
 10
179.50566677517361
 20
96.539499240451377
 10
179.19836425781247
 20
96.321769205729154
 97
        0
 75
     0
 76
     1
 98
        1
 10
0.0
 20
0.0
  0
POLYLINE
  5
1A5
100
AcDbEntity
  8
BORDER
 62
     7
100
AcDb2dPolyline
 66
     1
 10
0.0
 20
0.0
 30
0.0
 70
     1
  0
VERTEX
  5
1A6
100
AcDbEntity
  8
BORDER
 62
     7
100
AcDbVertex
100
AcDb2dVertex
 10
179.368207
 20
96.152615
 30
0.0
  0
VERTEX
  5
1A7
100
AcDbEntity
  8
BORDER
 62
     7
100
AcDbVertex
100
AcDb2dVertex
 10
179.70686
 20
96.390327
 30
0.0
  0
VERTEX
  5
1A8
100
AcDbEntity
  8
BORDER
 62
     7
100
AcDbVertex
100
AcDb2dVertex
 10
179.505667
 20
96.539499
 30
0.0
  0
VERTEX
  5
1A9
100
AcDbEntity
  8
BORDER
 62
     7
100
AcDbVertex
100
AcDb2dVertex
 10
179.198364
 20
96.321769
 30
0.0
  0
SEQEND
  5
1AA
100
AcDbEntity
  8
BORDER
 62
     7
  0
HATCH
  5
1A4
100
AcDbEntity
  8
BORDER
 62
     7
100
AcDbHatch
 10
0.0
 20
0.0
 30
0.0
210
0.0
220
0.0
230
1.0
  2
SOLID
 70
     1
 71
     0
 91
        1
 92
        3
 72
     0
 73
     1
 93
        4
 10
179.19836425781247
 20
96.321769205729154
 10
179.50566677517361
 20
96.539499240451377
 10
179.70686035156248
 20
96.390326605902771
 10
179.36820746527775
 20
96.1526150173611
 97
        0
 75
     0
 76
     1
 98
        1
 10
0.0
 20
0.0
  0
POLYLINE
  5
19E
100
AcDbEntity
  8
BORDER
 62
     7
100
AcDb2dPolyline
 66
     1
 10
0.0
 20
0.0
 30
0.0
 70
     1
  0
VERTEX
  5
19F
100
AcDbEntity
  8
BORDER
 62
     7
100
AcDbVertex
100
AcDb2dVertex
 10
179.444689
 20
96.759641
 30
0.0
  0
VERTEX
  5
1A0
100
AcDbEntity
  8
BORDER
 62
     7
100
AcDbVertex
100
AcDb2dVertex
 10
179.684123
 20
96.64802
 30
0.0
  0
VERTEX
  5
1A1
100
AcDbEntity
  8
BORDER
 62
     7
100
AcDbVertex
100
AcDb2dVertex
 10
180.149211
 20
97.093471
 30
0.0
  0
VERTEX
  5
1A2
100
AcDbEntity
  8
BORDER
 62
     7
100
AcDbVertex
100
AcDb2dVertex
 10
179.663108
 20
97.249189
 30
0.0
  0
SEQEND
  5
1A3
100
AcDbEntity
  8
BORDER
 62
     7
  0
HATCH
  5
19D
100
AcDbEntity
  8
BORDER
 62
     7
100
AcDbHatch
 10
0.0
 20
0.0
 30
0.0
210
0.0
220
0.0
230
1.0
  2
SOLID
 70
     1
 71
     0
 91
        1
 92
        3
 72
     0
 73
     1
 93
        4
 10
179.66310763888887
 20
97.249188910590263
 10
180.14921061197916
 20
97.09347059461804
 10
179.68412272135416
 20
96.648019748263877
 10
179.44468858506943
 20
96.75964084201388
 97
        0
 75
     0
 76
     1
 98
        1
 10
0.0
 20
0.0
  0
POLYLINE
  5
197
100
AcDbEntity
  8
BORDER
 62
     7
100
AcDb2dPolyline
 66
     1
 10
0.0
 20
0.0
 30
0.0
 70
     1
  0
VERTEX
  5
198
100
AcDbEntity
  8
BORDER
 62
     7
100
AcDbVertex
100
AcDb2dVertex
 10
179.444689
 20
96.759641
 30
0.0
  0
VERTEX
  5
199
100
AcDbEntity
  8
BORDER
 62
     7
100
AcDbVertex
100
AcDb2dVertex
 10
179.684123
 20
96.64802
 30
0.0
  0
VERTEX
  5
19A
100
AcDbEntity
  8
BORDER
 62
     7
100
AcDbVertex
100
AcDb2dVertex
 10
179.505667
 20
96.539499
 30
0.0
  0
VERTEX
  5
19B
100
AcDbEntity
  8
BORDER
 62
     7
100
AcDbVertex
100
AcDb2dVertex
 10
179.115337
 20
96.770321
 30
0.0
  0
SEQEND
  5
19C
100
AcDbEntity
  8
BORDER
 62
     7
  0
HATCH
  5
196
100
AcDbEntity
  8
BORDER
 62
     7
100
AcDbHatch
 10
0.0
 20
0.0
 30
0.0
210
0.0
220
0.0
230
1.0
  2
SOLID
 70
     1
 71
     0
 91
        1
 92
        3
 72
     0
 73
     1
 93
        4
 10
179.44468858506943
 20
96.75964084201388
 10
179.68412272135416
 20
96.648019748263877
 10
179.50566677517361
 20
96.539499240451377
 10
179.11533745659722
 20
96.77032063802082
 97
        0
 75
     0
 76
     1
 98
        1
 10
0.0
 20
0.0
  0
SPLINE
  5
195
100
AcDbEntity
  8
BORDER
 62
     7
100
AcDbSpline
210
0.0
220
0.0
230
1.0
 70
     8
 71
     3
 72
     8
 73
     4
 74
     0
 42
0.00000001
 43
0.00000001
 40
0.0
 40
0.0
 40
0.0
 40
0.0
 40
1.0
 40
1.0
 40
1.0
 40
1.0
 10
180.10097927517359
 20
95.247932942708331
 30
0.0
 10
180.10683593749999
 20
95.18902180989582
 30
0.0
 10
180.12406141493054
 20
95.131488715277769
 30
0.0
 10
180.1509331597222
 20
95.078778754340263
 30
0.0
  0
POLYLINE
  5
18F
100
AcDbEntity
  8
BORDER
 62
     7
100
AcDb2dPolyline
 66
     1
 10
0.0
 20
0.0
 30
0.0
 70
     1
  0
VERTEX
  5
190
100
AcDbEntity
  8
BORDER
 62
     7
100
AcDbVertex
100
AcDb2dVertex
 10
179.600062
 20
95.046395
 30
0.0
  0
VERTEX
  5
191
100
AcDbEntity
  8
BORDER
 62
     7
100
AcDbVertex
100
AcDb2dVertex
 10
180.245673
 20
95.046395
 30
0.0
  0
VERTEX
  5
192
100
AcDbEntity
  8
BORDER
 62
     7
100
AcDbVertex
100
AcDb2dVertex
 10
180.151278
 20
95.194534
 30
0.0
  0
VERTEX
  5
193
100
AcDbEntity
  8
BORDER
 62
     7
100
AcDbVertex
100
AcDb2dVertex
 10
179.57009
 20
95.133556
 30
0.0
  0
SEQEND
  5
194
100
AcDbEntity
  8
BORDER
 62
     7
  0
HATCH
  5
18E
100
AcDbEntity
  8
BORDER
 62
     7
100
AcDbHatch
 10
0.0
 20
0.0
 30
0.0
210
0.0
220
0.0
230
1.0
  2
SOLID
 70
     1
 71
     0
 91
        1
 92
        3
 72
     0
 73
     1
 93
        4
 10
179.57009006076387
 20
95.133555772569437
 10
180.15127766927083
 20
95.194533962673603
 10
180.24567328559027
 20
95.046394856770831
 10
179.60006239149303
 20
95.046394856770831
 97
        0
 75
     0
 76
     1
 98
        1
 10
0.0
 20
0.0
  0
SPLINE
  5
18D
100
AcDbEntity
  8
BORDER
 62
     7
100
AcDbSpline
210
0.0
220
0.0
230
1.0
 70
     8
 71
     3
 72
     8
 73
     4
 74
     0
 42
0.00000001
 43
0.00000001
 40
0.0
 40
0.0
 40
0.0
 40
0.0
 40
1.0
 40
1.0
 40
1.0
 40
1.0
 10
179.61039767795137
 20
95.212103949652771
 30
0.0
 10
179.61453179253471
 20
95.164906141493049
 30
0.0
 10
179.62934570312498
 20
95.119430881076383
 30
0.0
 10
179.65380588107638
 20
95.078778754340263
 30
0.0
  0
POLYLINE
  5
187
100
AcDbEntity
  8
BORDER
 62
     7
100
AcDb2dPolyline
 66
     1
 10
0.0
 20
0.0
 30
0.0
 70
     1
  0
VERTEX
  5
188
100
AcDbEntity
  8
BORDER
 62
     7
100
AcDbVertex
100
AcDb2dVertex
 10
179.499466
 20
95.770898
 30
0.0
  0
VERTEX
  5
189
100
AcDbEntity
  8
BORDER
 62
     7
100
AcDbVertex
100
AcDb2dVertex
 10
179.548041
 20
95.206592
 30
0.0
  0
VERTEX
  5
18A
100
AcDbEntity
  8
BORDER
 62
     7
100
AcDbVertex
100
AcDb2dVertex
 10
180.16368
 20
95.254134
 30
0.0
  0
VERTEX
  5
18B
100
AcDbEntity
  8
BORDER
 62
     7
100
AcDbVertex
100
AcDb2dVertex
 10
180.094778
 20
95.951077
 30
0.0
  0
SEQEND
  5
18C
100
AcDbEntity
  8
BORDER
 62
     7
  0
HATCH
  5
186
100
AcDbEntity
  8
BORDER
 62
     7
100
AcDbHatch
 10
0.0
 20
0.0
 30
0.0
210
0.0
220
0.0
230
1.0
  2
SOLID
 70
     1
 71
     0
 91
        1
 92
        3
 72
     0
 73
     1
 93
        4
 10
180.09477810329861
 20
95.9510769314236
 10
180.16368001302081
 20
95.254134114583323
 10
179.54804144965277
 20
95.206591796874989
 10
179.4994656032986
 20
95.770898437499994
 97
        0
 75
     0
 76
     1
 98
        1
 10
0.0
 20
0.0
  0
POLYLINE
  5
180
100
AcDbEntity
  8
BORDER
 62
     7
100
AcDb2dPolyline
 66
     1
 10
0.0
 20
0.0
 30
0.0
 70
     1
  0
VERTEX
  5
181
100
AcDbEntity
  8
BORDER
 62
     7
100
AcDbVertex
100
AcDb2dVertex
 10
179.57009
 20
95.133556
 30
0.0
  0
VERTEX
  5
182
100
AcDbEntity
  8
BORDER
 62
     7
100
AcDbVertex
100
AcDb2dVertex
 10
180.151278
 20
95.194534
 30
0.0
  0
VERTEX
  5
183
100
AcDbEntity
  8
BORDER
 62
     7
100
AcDbVertex
100
AcDb2dVertex
 10
180.16368
 20
95.254134
 30
0.0
  0
VERTEX
  5
184
100
AcDbEntity
  8
BORDER
 62
     7
100
AcDbVertex
100
AcDb2dVertex
 10
179.548041
 20
95.206592
 30
0.0
  0
SEQEND
  5
185
100
AcDbEntity
  8
BORDER
 62
     7
  0
HATCH
  5
17F
100
AcDbEntity
  8
BORDER
 62
     7
100
AcDbHatch
 10
0.0
 20
0.0
 30
0.0
210
0.0
220
0.0
230
1.0
  2
SOLID
 70
     1
 71
     0
 91
        1
 92
        3
 72
     0
 73
     1
 93
        4
 10
179.54804144965277
 20
95.206591796874989
 10
180.16368001302081
 20
95.254134114583323
 10
180.15127766927083
 20
95.194533962673603
 10
179.57009006076387
 20
95.133555772569437
 97
        0
 75
     0
 76
     1
 98
        1
 10
0.0
 20
0.0
  0
SPLINE
  5
17E
100
AcDbEntity
  8
BORDER
 62
     7
100
AcDbSpline
210
0.0
220
0.0
230
1.0
 70
     8
 71
     3
 72
     8
 73
     4
 74
     0
 42
0.00000001
 43
0.00000001
 40
0.0
 40
0.0
 40
0.0
 40
0.0
 40
1.0
 40
1.0
 40
1.0
 40
1.0
 10
180.03242187499998
 20
95.944875759548609
 30
0.0
 10
180.0048611111111
 20
96.226684570312486
 30
0.0
 10
179.78161892361109
 20
96.44958224826388
 30
0.0
 10
179.4994656032986
 20
96.477143012152766
 30
0.0
  0
SPLINE
  5
17D
100
AcDbEntity
  8
BORDER
 62
     7
100
AcDbSpline
210
0.0
220
0.0
230
1.0
 70
     8
 71
     3
 72
     8
 73
     4
 74
     0
 42
0.00000001
 43
0.00000001
 40
0.0
 40
0.0
 40
0.0
 40
0.0
 40
1.0
 40
1.0
 40
1.0
 40
1.0
 10
179.56216634114583
 20
95.776066080729152
 30
0.0
 10
179.53391655815972
 20
96.106795247395823
 30
0.0
 10
179.25693088107639
 20
96.361043294270829
 30
0.0
 10
178.92516818576388
 20
96.361043294270829
 30
0.0
  0
POLYLINE
  5
177
100
AcDbEntity
  8
BORDER
 62
     7
100
AcDb2dPolyline
 66
     1
 10
0.0
 20
0.0
 30
0.0
 70
     1
  0
VERTEX
  5
178
100
AcDbEntity
  8
BORDER
 62
     7
100
AcDbVertex
100
AcDb2dVertex
 10
179.499466
 20
95.770898
 30
0.0
  0
VERTEX
  5
179
100
AcDbEntity
  8
BORDER
 62
     7
100
AcDbVertex
100
AcDb2dVertex
 10
180.094778
 20
95.951077
 30
0.0
  0
VERTEX
  5
17A
100
AcDbEntity
  8
BORDER
 62
     7
100
AcDbVertex
100
AcDb2dVertex
 10
180.020364
 20
96.135734
 30
0.0
  0
VERTEX
  5
17B
100
AcDbEntity
  8
BORDER
 62
     7
100
AcDbVertex
100
AcDb2dVertex
 10
179.512212
 20
95.957967
 30
0.0
  0
SEQEND
  5
17C
100
AcDbEntity
  8
BORDER
 62
     7
  0
HATCH
  5
176
100
AcDbEntity
  8
BORDER
 62
     7
100
AcDbHatch
 10
0.0
 20
0.0
 30
0.0
210
0.0
220
0.0
230
1.0
  2
SOLID
 70
     1
 71
     0
 91
        1
 92
        3
 72
     0
 73
     1
 93
        4
 10
179.51221245659721
 20
95.957967122395829
 10
180.0203640407986
 20
96.135734049479154
 10
180.09477810329861
 20
95.9510769314236
 10
179.4994656032986
 20
95.770898437499994
 97
        0
 75
     0
 76
     1
 98
        1
 10
0.0
 20
0.0
  0
POLYLINE
  5
170
100
AcDbEntity
  8
BORDER
 62
     7
100
AcDb2dPolyline
 66
     1
 10
0.0
 20
0.0
 30
0.0
 70
     1
  0
VERTEX
  5
171
100
AcDbEntity
  8
BORDER
 62
     7
100
AcDbVertex
100
AcDb2dVertex
 10
179.512212
 20
95.957967
 30
0.0
  0
VERTEX
  5
172
100
AcDbEntity
  8
BORDER
 62
     7
100
AcDbVertex
100
AcDb2dVertex
 10
180.020364
 20
96.135734
 30
0.0
  0
VERTEX
  5
173
100
AcDbEntity
  8
BORDER
 62
     7
100
AcDbVertex
100
AcDb2dVertex
 10
179.70686
 20
96.390327
 30
0.0
  0
VERTEX
  5
174
100
AcDbEntity
  8
BORDER
 62
     7
100
AcDbVertex
100
AcDb2dVertex
 10
179.368207
 20
96.152615
 30
0.0
  0
SEQEND
  5
175
100
AcDbEntity
  8
BORDER
 62
     7
  0
HATCH
  5
16F
100
AcDbEntity
  8
BORDER
 62
     7
100
AcDbHatch
 10
0.0
 20
0.0
 30
0.0
210
0.0
220
0.0
230
1.0
  2
SOLID
 70
     1
 71
     0
 91
        1
 92
        3
 72
     0
 73
     1
 93
        4
 10
179.36820746527775
 20
96.1526150173611
 10
179.70686035156248
 20
96.390326605902771
 10
180.0203640407986
 20
96.135734049479154
 10
179.51221245659721
 20
95.957967122395829
 97
        0
 75
     0
 76
     1
 98
        1
 10
0.0
 20
0.0
  0
SPLINE
  5
16E
100
AcDbEntity
  8
BORDER
 62
     7
100
AcDbSpline
210
0.0
220
0.0
230
1.0
 70
     8
 71
     3
 72
    23
 73
    19
 74
     0
 42
0.00000001
 43
0.00000001
 40
0.0
 40
0.0
 40
0.0
 40
0.0
 40
1.0
 40
1.0
 40
1.0
 40
2.0
 40
2.0
 40
2.0
 40
3.0
 40
3.0
 40
3.0
 40
4.0
 40
4.0
 40
4.0
 40
5.0
 40
5.0
 40
5.0
 40
6.0
 40
6.0
 40
6.0
 40
6.0
 10
188.50150010850692
 20
97.011821831597217
 30
0.0
 10
188.80018988715275
 20
96.949810112847217
 30
0.0
 10
189.09887966579859
 20
96.888831922743051
 30
0.0
 10
189.39825846354165
 20
96.829231770833331
 30
0.0
 10
189.65319552951388
 20
96.780311414930551
 30
0.0
 10
189.87505967881944
 20
96.625282118055551
 30
0.0
 10
190.00838487413193
 20
96.402728949652769
 30
0.0
 10
190.12414008246526
 20
96.209114583333331
 30
0.0
 10
190.15480143229166
 20
95.97622612847222
 30
0.0
 10
190.09278971354166
 20
95.759529622395831
 30
0.0
 10
190.00700683593749
 20
95.460150824652771
 30
0.0
 10
189.78789876302082
 20
95.217271592881943
 30
0.0
 10
189.4991997612847
 20
95.10082736545138
 30
0.0
 10
189.10404730902775
 20
94.941663953993043
 30
0.0
 10
188.66583116319444
 20
94.926850043402766
 30
0.0
 10
188.26068793402777
 20
95.058797200520829
 30
0.0
 10
187.96751030815972
 20
95.154226345486109
 30
0.0
 10
187.72842068142359
 20
95.36920030381944
 30
0.0
 10
187.60198567708332
 20
95.65066460503472
 30
0.0
  0
POLYLINE
  5
169
100
AcDbEntity
  8
BORDER
 62
     7
100
AcDb2dPolyline
 66
     1
 10
0.0
 20
0.0
 30
0.0
  0
VERTEX
  5
16A
100
AcDbEntity
  8
BORDER
 62
     7
100
AcDbVertex
100
AcDb2dVertex
 10
185.159757
 20
95.046395
 30
0.0
  0
VERTEX
  5
16B
100
AcDbEntity
  8
BORDER
 62
     7
100
AcDbVertex
100
AcDb2dVertex
 10
184.502089
 20
95.046395
 30
0.0
  0
VERTEX
  5
16C
100
AcDbEntity
  8
BORDER
 62
     7
100
AcDbVertex
100
AcDb2dVertex
 10
184.294694
 20
95.720256
 30
0.0
  0
SEQEND
  5
16D
100
AcDbEntity
  8
BORDER
 62
     7
  0
LINE
  5
168
100
AcDbEntity
  8
BORDER
 62
     7
100
AcDbLine
 10
184.149655
 20
96.189822
 30
0.0
 11
183.695592
 21
97.664667
 31
0.0
  0
LINE
  5
167
100
AcDbEntity
  8
BORDER
 62
     7
100
AcDbLine
 10
183.241184
 20
96.189822
 30
0.0
 11
184.149655
 21
96.189822
 31
0.0
  0
LINE
  5
166
100
AcDbEntity
  8
BORDER
 62
     7
100
AcDbLine
 10
183.695592
 20
97.664667
 30
0.0
 11
183.241184
 21
96.189822
 31
0.0
  0
POLYLINE
  5
160
100
AcDbEntity
  8
BORDER
 62
     7
100
AcDb2dPolyline
 66
     1
 10
0.0
 20
0.0
 30
0.0
  0
VERTEX
  5
161
100
AcDbEntity
  8
BORDER
 62
     7
100
AcDbVertex
100
AcDb2dVertex
 10
184.294694
 20
95.720256
 30
0.0
  0
VERTEX
  5
162
100
AcDbEntity
  8
BORDER
 62
     7
100
AcDbVertex
100
AcDb2dVertex
 10
183.09649
 20
95.720256
 30
0.0
  0
VERTEX
  5
163
100
AcDbEntity
  8
BORDER
 62
     7
100
AcDbVertex
100
AcDb2dVertex
 10
182.889095
 20
95.046395
 30
0.0
  0
VERTEX
  5
164
100
AcDbEntity
  8
BORDER
 62
     7
100
AcDbVertex
100
AcDb2dVertex
 10
182.231426
 20
95.046395
 30
0.0
  0
SEQEND
  5
165
100
AcDbEntity
  8
BORDER
 62
     7
  0
SPLINE
  5
15F
100
AcDbEntity
  8
BORDER
 62
     7
100
AcDbSpline
210
0.0
220
0.0
230
1.0
 70
     8
 71
     3
 72
     8
 73
     4
 74
     0
 42
0.00000001
 43
0.00000001
 40
0.0
 40
0.0
 40
0.0
 40
0.0
 40
1.0
 40
1.0
 40
1.0
 40
1.0
 10
187.44006618923609
 20
96.44131401909722
 30
0.0
 10
187.32913411458333
 20
96.56533745659722
 30
0.0
 10
187.19133029513887
 20
96.663178168402766
 30
0.0
 10
187.03767903645831
 20
96.728290473090269
 30
0.0
  0
SPLINE
  5
15E
100
AcDbEntity
  8
BORDER
 62
     7
100
AcDbSpline
210
0.0
220
0.0
230
1.0
 70
     8
 71
     3
 72
     8
 73
     4
 74
     0
 42
0.00000001
 43
0.00000001
 40
0.0
 40
0.0
 40
0.0
 40
0.0
 40
1.0
 40
1.0
 40
1.0
 40
1.0
 10
187.03767903645831
 20
96.728290473090269
 30
0.0
 10
187.15722384982638
 20
96.784790039062486
 30
0.0
 10
187.26746690538192
 20
96.859548611111109
 30
0.0
 10
187.36358506944444
 20
96.950154622395829
 30
0.0
  0
SPLINE
  5
15D
100
AcDbEntity
  8
BORDER
 62
     7
100
AcDbSpline
210
0.0
220
0.0
230
1.0
 70
     8
 71
     3
 72
     8
 73
     4
 74
     0
 42
0.00000001
 43
0.00000001
 40
0.0
 40
0.0
 40
0.0
 40
0.0
 40
1.0
 40
1.0
 40
1.0
 40
1.0
 10
187.36358506944444
 20
96.950154622395829
 30
0.0
 10
187.48071831597221
 20
97.059708658854163
 30
0.0
 10
187.54858669704859
 20
97.211981879340271
 30
0.0
 10
187.55272081163193
 20
97.372178819444429
 30
0.0
  0
SPLINE
  5
15C
100
AcDbEntity
  8
BORDER
 62
     7
100
AcDbSpline
210
0.0
220
0.0
230
1.0
 70
     8
 71
     3
 72
     8
 73
     4
 74
     0
 42
0.00000001
 43
0.00000001
 40
0.0
 40
0.0
 40
0.0
 40
0.0
 40
1.0
 40
1.0
 40
1.0
 40
1.0
 10
187.64022623697915
 20
95.987939453124994
 30
0.0
 10
187.6230007595486
 20
96.156404622395826
 30
0.0
 10
187.55306532118053
 20
96.31487901475694
 30
0.0
 10
187.44006618923609
 20
96.44131401909722
 30
0.0
  0
LINE
  5
15B
100
AcDbEntity
  8
BORDER
 62
     7
100
AcDbLine
 10
185.707528
 20
97.709109
 30
0.0
 11
185.707528
 21
96.926039
 31
0.0
  0
LINE
  5
15A
100
AcDbEntity
  8
BORDER
 62
     7
100
AcDbLine
 10
186.539863
 20
96.440625
 30
0.0
 11
185.707528
 21
96.440625
 31
0.0
  0
SPLINE
  5
159
100
AcDbEntity
  8
BORDER
 62
     7
100
AcDbSpline
210
0.0
220
0.0
230
1.0
 70
     8
 71
     3
 72
    11
 73
     7
 74
     0
 42
0.00000001
 43
0.00000001
 40
0.0
 40
0.0
 40
0.0
 40
0.0
 40
1.0
 40
1.0
 40
1.0
 40
2.0
 40
2.0
 40
2.0
 40
2.0
 10
186.49989963107637
 20
96.926038953993043
 30
0.0
 10
186.71590711805553
 20
96.926038953993043
 30
0.0
 10
186.89126247829859
 20
97.101394314236103
 30
0.0
 10
186.89126247829859
 20
97.317401801215269
 30
0.0
 10
186.89126247829859
 20
97.533753797743046
 30
0.0
 10
186.71590711805553
 20
97.709109157986106
 30
0.0
 10
186.49989963107637
 20
97.709109157986106
 30
0.0
  0
LINE
  5
158
100
AcDbEntity
  8
BORDER
 62
     7
100
AcDbLine
 10
185.707528
 20
96.926039
 30
0.0
 11
186.4999
 21
96.926039
 31
0.0
  0
LINE
  5
157
100
AcDbEntity
  8
BORDER
 62
     7
100
AcDbLine
 10
186.4999
 20
97.709109
 30
0.0
 11
185.707528
 21
97.709109
 31
0.0
  0
SPLINE
  5
156
100
AcDbEntity
  8
BORDER
 62
     7
100
AcDbSpline
210
0.0
220
0.0
230
1.0
 70
     8
 71
     3
 72
     8
 73
     4
 74
     0
 42
0.00000001
 43
0.00000001
 40
0.0
 40
0.0
 40
0.0
 40
0.0
 40
1.0
 40
1.0
 40
1.0
 40
1.0
 10
186.45924750434025
 20
95.532153320312489
 30
0.0
 10
186.60118543836805
 20
95.532153320312489
 30
0.0
 10
186.73726671006943
 20
95.58624131944444
 30
0.0
 10
186.84027506510415
 20
95.683048502604152
 30
0.0
  0
SPLINE
  5
155
100
AcDbEntity
  8
BORDER
 62
     7
100
AcDbSpline
210
0.0
220
0.0
230
1.0
 70
     8
 71
     3
 72
     8
 73
     4
 74
     0
 42
0.00000001
 43
0.00000001
 40
0.0
 40
0.0
 40
0.0
 40
0.0
 40
1.0
 40
1.0
 40
1.0
 40
1.0
 10
186.60049641927083
 20
95.046394856770831
 30
0.0
 10
186.81340332031249
 20
95.046394856770831
 30
0.0
 10
187.02355414496526
 20
95.097726779513877
 30
0.0
 10
187.21234537760415
 20
95.19625651041666
 30
0.0
  0
SPLINE
  5
154
100
AcDbEntity
  8
BORDER
 62
     7
100
AcDbSpline
210
0.0
220
0.0
230
1.0
 70
     8
 71
     3
 72
     8
 73
     4
 74
     0
 42
0.00000001
 43
0.00000001
 40
0.0
 40
0.0
 40
0.0
 40
0.0
 40
1.0
 40
1.0
 40
1.0
 40
1.0
 10
187.21234537760415
 20
95.19625651041666
 30
0.0
 10
187.39596896701389
 20
95.29168565538194
 30
0.0
 10
187.53583984374998
 20
95.454294162326377
 30
0.0
 10
187.60198567708332
 20
95.65066460503472
 30
0.0
  0
LINE
  5
153
100
AcDbEntity
  8
BORDER
 62
     7
100
AcDbLine
 10
185.707528
 20
95.532153
 30
0.0
 11
186.459248
 21
95.532153
 31
0.0
  0
LINE
  5
152
100
AcDbEntity
  8
BORDER
 62
     7
100
AcDbLine
 10
185.081209
 20
95.046395
 30
0.0
 11
186.600496
 21
95.046395
 31
0.0
  0
SPLINE
  5
151
100
AcDbEntity
  8
BORDER
 62
     7
100
AcDbSpline
210
0.0
220
0.0
230
1.0
 70
     8
 71
     3
 72
    11
 73
     7
 74
     0
 42
0.00000001
 43
0.00000001
 40
0.0
 40
0.0
 40
0.0
 40
0.0
 40
1.0
 40
1.0
 40
1.0
 40
2.0
 40
2.0
 40
2.0
 40
2.0
 10
186.84027506510415
 20
95.683048502604152
 30
0.0
 10
187.01631944444443
 20
95.848757595486106
 30
0.0
 10
187.0252766927083
 20
96.126087782118049
 30
0.0
 10
186.85956759982636
 20
96.302476671006929
 30
0.0
 10
186.77654079861108
 20
96.390671115451383
 30
0.0
 10
186.66113009982638
 20
96.440624999999997
 30
0.0
 10
186.53986273871527
 20
96.440624999999997
 30
0.0
  0
LINE
  5
150
100
AcDbEntity
  8
BORDER
 62
     7
100
AcDbLine
 10
185.707528
 20
96.440625
 30
0.0
 11
185.707528
 21
95.532153
 31
0.0
  0
POLYLINE
  5
14A
100
AcDbEntity
  8
BORDER
 62
     7
100
AcDb2dPolyline
 66
     1
 10
0.0
 20
0.0
 30
0.0
 70
     1
  0
VERTEX
  5
14B
100
AcDbEntity
  8
BORDER
 62
     7
100
AcDbVertex
100
AcDb2dVertex
 10
190.591295
 20
96.786513
 30
0.0
  0
VERTEX
  5
14C
100
AcDbEntity
  8
BORDER
 62
     7
100
AcDbVertex
100
AcDb2dVertex
 10
192.064418
 20
96.786513
 30
0.0
  0
VERTEX
  5
14D
100
AcDbEntity
  8
BORDER
 62
     7
100
AcDbVertex
100
AcDb2dVertex
 10
192.064418
 20
96.477143
 30
0.0
  0
VERTEX
  5
14E
100
AcDbEntity
  8
BORDER
 62
     7
100
AcDbVertex
100
AcDb2dVertex
 10
190.591295
 20
96.477143
 30
0.0
  0
SEQEND
  5
14F
100
AcDbEntity
  8
BORDER
 62
     7
  0
HATCH
  5
149
100
AcDbEntity
  8
BORDER
 62
     7
100
AcDbHatch
 10
0.0
 20
0.0
 30
0.0
210
0.0
220
0.0
230
1.0
  2
SOLID
 70
     1
 71
     0
 91
        1
 92
        3
 72
     0
 73
     1
 93
        4
 10
190.59129503038193
 20
96.786512586805543
 10
192.06441786024303
 20
96.786512586805543
 10
192.06441786024303
 20
96.477143012152766
 10
190.59129503038193
 20
96.477143012152766
 97
        0
 75
     0
 76
     1
 98
        1
 10
0.0
 20
0.0
  0
SPLINE
  5
148
100
AcDbEntity
  8
BORDER
 62
     7
100
AcDbSpline
210
0.0
220
0.0
230
1.0
 70
     8
 71
     3
 72
     8
 73
     4
 74
     0
 42
0.00000001
 43
0.00000001
 40
0.0
 40
0.0
 40
0.0
 40
0.0
 40
1.0
 40
1.0
 40
1.0
 40
1.0
 10
191.00780707465276
 20
97.018023003472209
 30
0.0
 10
191.28961588541665
 20
96.907090928819429
 30
0.0
 10
191.60932074652777
 20
96.957044813368043
 30
0.0
 10
191.84427625868054
 20
97.148247612847214
 30
0.0
  0
POLYLINE
  5
142
100
AcDbEntity
  8
BORDER
 62
     7
100
AcDb2dPolyline
 66
     1
 10
0.0
 20
0.0
 30
0.0
 70
     1
  0
VERTEX
  5
143
100
AcDbEntity
  8
BORDER
 62
     7
100
AcDbVertex
100
AcDb2dVertex
 10
191.371609
 20
97.200613
 30
0.0
  0
VERTEX
  5
144
100
AcDbEntity
  8
BORDER
 62
     7
100
AcDbVertex
100
AcDb2dVertex
 10
191.387801
 20
96.94981
 30
0.0
  0
VERTEX
  5
145
100
AcDbEntity
  8
BORDER
 62
     7
100
AcDbVertex
100
AcDb2dVertex
 10
191.873904
 20
97.143424
 30
0.0
  0
VERTEX
  5
146
100
AcDbEntity
  8
BORDER
 62
     7
100
AcDbVertex
100
AcDb2dVertex
 10
191.763317
 20
97.325326
 30
0.0
  0
SEQEND
  5
147
100
AcDbEntity
  8
BORDER
 62
     7
  0
HATCH
  5
141
100
AcDbEntity
  8
BORDER
 62
     7
100
AcDbHatch
 10
0.0
 20
0.0
 30
0.0
210
0.0
220
0.0
230
1.0
  2
SOLID
 70
     1
 71
     0
 91
        1
 92
        3
 72
     0
 73
     1
 93
        4
 10
191.76331651475692
 20
97.325325520833331
 10
191.87390407986109
 20
97.143424479166654
 10
191.38780110677081
 20
96.949810112847217
 10
191.37160915798609
 20
97.200613064236109
 97
        0
 75
     0
 76
     1
 98
        1
 10
0.0
 20
0.0
  0
POLYLINE
  5
13B
100
AcDbEntity
  8
BORDER
 62
     7
100
AcDb2dPolyline
 66
     1
 10
0.0
 20
0.0
 30
0.0
 70
     1
  0
VERTEX
  5
13C
100
AcDbEntity
  8
BORDER
 62
     7
100
AcDbVertex
100
AcDb2dVertex
 10
190.591295
 20
94.967158
 30
0.0
  0
VERTEX
  5
13D
100
AcDbEntity
  8
BORDER
 62
     7
100
AcDbVertex
100
AcDb2dVertex
 10
190.591295
 20
95.276527
 30
0.0
  0
VERTEX
  5
13E
100
AcDbEntity
  8
BORDER
 62
     7
100
AcDbVertex
100
AcDb2dVertex
 10
192.064418
 20
95.276527
 30
0.0
  0
VERTEX
  5
13F
100
AcDbEntity
  8
BORDER
 62
     7
100
AcDbVertex
100
AcDb2dVertex
 10
192.064418
 20
94.967158
 30
0.0
  0
SEQEND
  5
140
100
AcDbEntity
  8
BORDER
 62
     7
  0
HATCH
  5
13A
100
AcDbEntity
  8
BORDER
 62
     7
100
AcDbHatch
 10
0.0
 20
0.0
 30
0.0
210
0.0
220
0.0
230
1.0
  2
SOLID
 70
     1
 71
     0
 91
        1
 92
        3
 72
     0
 73
     1
 93
        4
 10
190.59129503038193
 20
94.967157660590274
 10
190.59129503038193
 20
95.276527235243051
 10
192.06441786024303
 20
95.276527235243051
 10
192.06441786024303
 20
94.967157660590274
 97
        0
 75
     0
 76
     1
 98
        1
 10
0.0
 20
0.0
  0
POLYLINE
  5
134
100
AcDbEntity
  8
BORDER
 62
     7
100
AcDb2dPolyline
 66
     1
 10
0.0
 20
0.0
 30
0.0
 70
     1
  0
VERTEX
  5
135
100
AcDbEntity
  8
BORDER
 62
     7
100
AcDbVertex
100
AcDb2dVertex
 10
192.064418
 20
95.534565
 30
0.0
  0
VERTEX
  5
136
100
AcDbEntity
  8
BORDER
 62
     7
100
AcDbVertex
100
AcDb2dVertex
 10
190.591295
 20
95.534565
 30
0.0
  0
VERTEX
  5
137
100
AcDbEntity
  8
BORDER
 62
     7
100
AcDbVertex
100
AcDb2dVertex
 10
190.591295
 20
95.84359
 30
0.0
  0
VERTEX
  5
138
100
AcDbEntity
  8
BORDER
 62
     7
100
AcDbVertex
100
AcDb2dVertex
 10
192.064418
 20
95.84359
 30
0.0
  0
SEQEND
  5
139
100
AcDbEntity
  8
BORDER
 62
     7
  0
HATCH
  5
133
100
AcDbEntity
  8
BORDER
 62
     7
100
AcDbHatch
 10
0.0
 20
0.0
 30
0.0
210
0.0
220
0.0
230
1.0
  2
SOLID
 70
     1
 71
     0
 91
        1
 92
        3
 72
     0
 73
     1
 93
        4
 10
192.06441786024303
 20
95.534564887152769
 10
190.59129503038193
 20
95.534564887152769
 10
190.59129503038193
 20
95.843589952256934
 10
192.06441786024303
 20
95.843589952256934
 97
        0
 75
     0
 76
     1
 98
        1
 10
0.0
 20
0.0
  0
POLYLINE
  5
12D
100
AcDbEntity
  8
BORDER
 62
     7
100
AcDb2dPolyline
 66
     1
 10
0.0
 20
0.0
 30
0.0
 70
     1
  0
VERTEX
  5
12E
100
AcDbEntity
  8
BORDER
 62
     7
100
AcDbVertex
100
AcDb2dVertex
 10
190.591295
 20
95.851169
 30
0.0
  0
VERTEX
  5
12F
100
AcDbEntity
  8
BORDER
 62
     7
100
AcDbVertex
100
AcDb2dVertex
 10
192.064418
 20
96.778933
 30
0.0
  0
VERTEX
  5
130
100
AcDbEntity
  8
BORDER
 62
     7
100
AcDbVertex
100
AcDb2dVertex
 10
192.064418
 20
96.469908
 30
0.0
  0
VERTEX
  5
131
100
AcDbEntity
  8
BORDER
 62
     7
100
AcDbVertex
100
AcDb2dVertex
 10
190.591295
 20
95.555924
 30
0.0
  0
SEQEND
  5
132
100
AcDbEntity
  8
BORDER
 62
     7
  0
HATCH
  5
12C
100
AcDbEntity
  8
BORDER
 62
     7
100
AcDbHatch
 10
0.0
 20
0.0
 30
0.0
210
0.0
220
0.0
230
1.0
  2
SOLID
 70
     1
 71
     0
 91
        1
 92
        3
 72
     0
 73
     1
 93
        4
 10
190.59129503038193
 20
95.851169162326386
 10
192.06441786024303
 20
96.778933376736106
 10
192.06441786024303
 20
96.46990831163194
 10
190.59129503038193
 20
95.555924479166663
 97
        0
 75
     0
 76
     1
 98
        1
 10
0.0
 20
0.0
  0
POLYLINE
  5
126
100
AcDbEntity
  8
BORDER
 62
     7
100
AcDb2dPolyline
 66
     1
 10
0.0
 20
0.0
 30
0.0
 70
     1
  0
VERTEX
  5
127
100
AcDbEntity
  8
BORDER
 62
     7
100
AcDbVertex
100
AcDb2dVertex
 10
190.788699
 20
97.449004
 30
0.0
  0
VERTEX
  5
128
100
AcDbEntity
  8
BORDER
 62
     7
100
AcDbVertex
100
AcDb2dVertex
 10
190.610243
 20
97.376313
 30
0.0
  0
VERTEX
  5
129
100
AcDbEntity
  8
BORDER
 62
     7
100
AcDbVertex
100
AcDb2dVertex
 10
190.918235
 20
97.044206
 30
0.0
  0
VERTEX
  5
12A
100
AcDbEntity
  8
BORDER
 62
     7
100
AcDbVertex
100
AcDb2dVertex
 10
191.06913
 20
97.225073
 30
0.0
  0
SEQEND
  5
12B
100
AcDbEntity
  8
BORDER
 62
     7
  0
HATCH
  5
125
100
AcDbEntity
  8
BORDER
 62
     7
100
AcDbHatch
 10
0.0
 20
0.0
 30
0.0
210
0.0
220
0.0
230
1.0
  2
SOLID
 70
     1
 71
     0
 91
        1
 92
        3
 72
     0
 73
     1
 93
        4
 10
191.06912977430554
 20
97.225073242187491
 10
190.91823459201387
 20
97.044205729166663
 10
190.61024305555554
 20
97.376312934027766
 10
190.78869900173609
 20
97.44900444878472
 97
        0
 75
     0
 76
     1
 98
        1
 10
0.0
 20
0.0
  0
POLYLINE
  5
11F
100
AcDbEntity
  8
BORDER
 62
     7
100
AcDb2dPolyline
 66
     1
 10
0.0
 20
0.0
 30
0.0
 70
     1
  0
VERTEX
  5
120
100
AcDbEntity
  8
BORDER
 62
     7
100
AcDbVertex
100
AcDb2dVertex
 10
191.06913
 20
97.225073
 30
0.0
  0
VERTEX
  5
121
100
AcDbEntity
  8
BORDER
 62
     7
100
AcDbVertex
100
AcDb2dVertex
 10
190.918235
 20
97.044206
 30
0.0
  0
VERTEX
  5
122
100
AcDbEntity
  8
BORDER
 62
     7
100
AcDbVertex
100
AcDb2dVertex
 10
191.387801
 20
96.94981
 30
0.0
  0
VERTEX
  5
123
100
AcDbEntity
  8
BORDER
 62
     7
100
AcDbVertex
100
AcDb2dVertex
 10
191.371609
 20
97.200613
 30
0.0
  0
SEQEND
  5
124
100
AcDbEntity
  8
BORDER
 62
     7
  0
HATCH
  5
11E
100
AcDbEntity
  8
BORDER
 62
     7
100
AcDbHatch
 10
0.0
 20
0.0
 30
0.0
210
0.0
220
0.0
230
1.0
  2
SOLID
 70
     1
 71
     0
 91
        1
 92
        3
 72
     0
 73
     1
 93
        4
 10
191.37160915798609
 20
97.200613064236109
 10
191.38780110677081
 20
96.949810112847217
 10
190.91823459201387
 20
97.044205729166663
 10
191.06912977430554
 20
97.225073242187491
 97
        0
 75
     0
 76
     1
 98
        1
 10
0.0
 20
0.0
  0
SPLINE
  5
11D
100
AcDbEntity
  8
BORDER
 62
     7
100
AcDbSpline
210
0.0
220
0.0
230
1.0
 70
     8
 71
     3
 72
     8
 73
     4
 74
     0
 42
0.00000001
 43
0.00000001
 40
0.0
 40
0.0
 40
0.0
 40
0.0
 40
1.0
 40
1.0
 40
1.0
 40
1.0
 10
191.84427625868054
 20
97.148247612847214
 30
0.0
 10
191.95830891927082
 20
97.241265190972214
 30
0.0
 10
192.0351345486111
 20
97.37148980034722
 30
0.0
 10
192.06166178385416
 20
97.516183810763877
 30
0.0
  0
POLYLINE
  5
117
100
AcDbEntity
  8
BORDER
 62
     7
100
AcDb2dPolyline
 66
     1
 10
0.0
 20
0.0
 30
0.0
 70
     1
  0
VERTEX
  5
118
100
AcDbEntity
  8
BORDER
 62
     7
100
AcDbVertex
100
AcDb2dVertex
 10
191.763317
 20
97.325326
 30
0.0
  0
VERTEX
  5
119
100
AcDbEntity
  8
BORDER
 62
     7
100
AcDbVertex
100
AcDb2dVertex
 10
191.873904
 20
97.143424
 30
0.0
  0
VERTEX
  5
11A
100
AcDbEntity
  8
BORDER
 62
     7
100
AcDbVertex
100
AcDb2dVertex
 10
192.082677
 20
97.51894
 30
0.0
  0
VERTEX
  5
11B
100
AcDbEntity
  8
BORDER
 62
     7
100
AcDbVertex
100
AcDb2dVertex
 10
191.891819
 20
97.614714
 30
0.0
  0
SEQEND
  5
11C
100
AcDbEntity
  8
BORDER
 62
     7
  0
HATCH
  5
116
100
AcDbEntity
  8
BORDER
 62
     7
100
AcDbHatch
 10
0.0
 20
0.0
 30
0.0
210
0.0
220
0.0
230
1.0
  2
SOLID
 70
     1
 71
     0
 91
        1
 92
        3
 72
     0
 73
     1
 93
        4
 10
191.89181857638886
 20
97.61471354166666
 10
192.08267686631942
 20
97.518939887152769
 10
191.87390407986109
 20
97.143424479166654
 10
191.76331651475692
 20
97.325325520833331
 97
        0
 75
     0
 76
     1
 98
        1
 10
0.0
 20
0.0
  0
LINE
  5
115
100
AcDbEntity
  8
BORDER
 62
     7
100
AcDbLine
 10
179.404036
 20
98.116319
 30
0.0
 11
177.675288
 21
98.116319
 31
0.0
  0
LINE
  5
114
100
AcDbEntity
  8
BORDER
 62
     7
100
AcDbLine
 10
180.884049
 20
98.17902
 30
0.0
 11
180.226725
 21
98.17902
 31
0.0
  0
SPLINE
  5
113
100
AcDbEntity
  8
BORDER
 62
     7
100
AcDbSpline
210
0.0
220
0.0
230
1.0
 70
     8
 71
     3
 72
     8
 73
     4
 74
     0
 42
0.00000001
 43
0.00000001
 40
0.0
 40
0.0
 40
0.0
 40
0.0
 40
1.0
 40
1.0
 40
1.0
 40
1.0
 10
187.21441243489582
 20
97.991262478298609
 30
0.0
 10
187.01252983940969
 20
98.113907877604163
 30
0.0
 10
186.78067491319442
 20
98.179020182291652
 30
0.0
 10
186.5446858723958
 20
98.179020182291652
 30
0.0
  0
LINE
  5
112
100
AcDbEntity
  8
BORDER
 62
     7
100
AcDbLine
 10
186.544686
 20
98.17902
 30
0.0
 11
185.081209
 21
98.17902
 31
0.0
  0
POLYLINE
  5
10C
100
AcDbEntity
  8
BORDER
 62
     7
100
AcDb2dPolyline
 66
     1
 10
0.0
 20
0.0
 30
0.0
 70
     1
  0
VERTEX
  5
10D
100
AcDbEntity
  8
BORDER
 62
     7
100
AcDbVertex
100
AcDb2dVertex
 10
191.814304
 20
97.871029
 30
0.0
  0
VERTEX
  5
10E
100
AcDbEntity
  8
BORDER
 62
     7
100
AcDbVertex
100
AcDb2dVertex
 10
191.996205
 20
97.99333
 30
0.0
  0
VERTEX
  5
10F
100
AcDbEntity
  8
BORDER
 62
     7
100
AcDbVertex
100
AcDb2dVertex
 10
191.660308
 20
98.250678
 30
0.0
  0
VERTEX
  5
110
100
AcDbEntity
  8
BORDER
 62
     7
100
AcDbVertex
100
AcDb2dVertex
 10
191.629302
 20
97.979894
 30
0.0
  0
SEQEND
  5
111
100
AcDbEntity
  8
BORDER
 62
     7
  0
HATCH
  5
10B
100
AcDbEntity
  8
BORDER
 62
     7
100
AcDbHatch
 10
0.0
 20
0.0
 30
0.0
210
0.0
220
0.0
230
1.0
  2
SOLID
 70
     1
 71
     0
 91
        1
 92
        3
 72
     0
 73
     1
 93
        4
 10
191.62930230034721
 20
97.979893663194431
 10
191.66030815972221
 20
98.250678168402771
 10
191.99620496961805
 20
97.993329535590263
 10
191.81430392795136
 20
97.87102864583332
 97
        0
 75
     0
 76
     1
 98
        1
 10
0.0
 20
0.0
  0
SPLINE
  5
10A
100
AcDbEntity
  8
BORDER
 62
     7
100
AcDbSpline
210
0.0
220
0.0
230
1.0
 70
     8
 71
     3
 72
     8
 73
     4
 74
     0
 42
0.00000001
 43
0.00000001
 40
0.0
 40
0.0
 40
0.0
 40
0.0
 40
1.0
 40
1.0
 40
1.0
 40
1.0
 10
192.0103298611111
 20
97.931317816840263
 30
0.0
 10
191.93384874131942
 20
98.099782986111109
 30
0.0
 10
191.77606336805553
 20
98.215882703993046
 30
0.0
 10
191.59278428819442
 20
98.237931315104163
 30
0.0
  0
POLYLINE
  5
104
100
AcDbEntity
  8
BORDER
 62
     7
100
AcDb2dPolyline
 66
     1
 10
0.0
 20
0.0
 30
0.0
 70
     1
  0
VERTEX
  5
105
100
AcDbEntity
  8
BORDER
 62
     7
100
AcDbVertex
100
AcDb2dVertex
 10
191.629302
 20
97.979894
 30
0.0
  0
VERTEX
  5
106
100
AcDbEntity
  8
BORDER
 62
     7
100
AcDbVertex
100
AcDb2dVertex
 10
191.660308
 20
98.250678
 30
0.0
  0
VERTEX
  5
107
100
AcDbEntity
  8
BORDER
 62
     7
100
AcDbVertex
100
AcDb2dVertex
 10
191.588995
 20
98.267904
 30
0.0
  0
VERTEX
  5
108
100
AcDbEntity
  8
BORDER
 62
     7
100
AcDbVertex
100
AcDb2dVertex
 10
191.588995
 20
97.970247
 30
0.0
  0
SEQEND
  5
109
100
AcDbEntity
  8
BORDER
 62
     7
  0
HATCH
  5
103
100
AcDbEntity
  8
BORDER
 62
     7
100
AcDbHatch
 10
0.0
 20
0.0
 30
0.0
210
0.0
220
0.0
230
1.0
  2
SOLID
 70
     1
 71
     0
 91
        1
 92
        3
 72
     0
 73
     1
 93
        4
 10
191.58899468315971
 20
97.970247395833326
 10
191.58899468315971
 20
98.267903645833329
 10
191.66030815972221
 20
98.250678168402771
 10
191.62930230034721
 20
97.979893663194431
 97
        0
 75
     0
 76
     1
 98
        1
 10
0.0
 20
0.0
  0
SPLINE
  5
102
100
AcDbEntity
  8
BORDER
 62
     7
100
AcDbSpline
210
0.0
220
0.0
230
1.0
 70
     8
 71
     3
 72
     8
 73
     4
 74
     0
 42
0.00000001
 43
0.00000001
 40
0.0
 40
0.0
 40
0.0
 40
0.0
 40
1.0
 40
1.0
 40
1.0
 40
1.0
 10
191.03950195312498
 20
98.2145046657986
 30
0.0
 10
190.84175347222219
 20
98.18591037326388
 30
0.0
 10
190.67673339843748
 20
98.047762044270826
 30
0.0
 10
190.61403266059025
 20
97.858281792534711
 30
0.0
  0
POLYLINE
  5
FC
100
AcDbEntity
  8
BORDER
 62
     7
100
AcDb2dPolyline
 66
     1
 10
0.0
 20
0.0
 30
0.0
 70
     1
  0
VERTEX
  5
FD
100
AcDbEntity
  8
BORDER
 62
     7
100
AcDbVertex
100
AcDb2dVertex
 10
190.94235
 20
97.959223
 30
0.0
  0
VERTEX
  5
FE
100
AcDbEntity
  8
BORDER
 62
     7
100
AcDbVertex
100
AcDb2dVertex
 10
190.793867
 20
98.120798
 30
0.0
  0
VERTEX
  5
FF
100
AcDbEntity
  8
BORDER
 62
     7
100
AcDbVertex
100
AcDb2dVertex
 10
190.985414
 20
98.230008
 30
0.0
  0
VERTEX
  5
100
100
AcDbEntity
  8
BORDER
 62
     7
100
AcDbVertex
100
AcDb2dVertex
 10
191.004706
 20
97.975071
 30
0.0
  0
SEQEND
  5
101
100
AcDbEntity
  8
BORDER
 62
     7
  0
HATCH
  5
FB
100
AcDbEntity
  8
BORDER
 62
     7
100
AcDbHatch
 10
0.0
 20
0.0
 30
0.0
210
0.0
220
0.0
230
1.0
  2
SOLID
 70
     1
 71
     0
 91
        1
 92
        3
 72
     0
 73
     1
 93
        4
 10
190.94235026041665
 20
97.959223090277774
 10
190.79386664496525
 20
98.120798068576377
 10
190.98541395399303
 20
98.2300075954861
 10
191.00470648871527
 20
97.975070529513886
 97
        0
 75
     0
 76
     1
 98
        1
 10
0.0
 20
0.0
  0
POLYLINE
  5
F5
100
AcDbEntity
  8
BORDER
 62
     7
100
AcDb2dPolyline
 66
     1
 10
0.0
 20
0.0
 30
0.0
 70
     1
  0
VERTEX
  5
F6
100
AcDbEntity
  8
BORDER
 62
     7
100
AcDbVertex
100
AcDb2dVertex
 10
191.004706
 20
97.975071
 30
0.0
  0
VERTEX
  5
F7
100
AcDbEntity
  8
BORDER
 62
     7
100
AcDbVertex
100
AcDb2dVertex
 10
190.985414
 20
98.230008
 30
0.0
  0
VERTEX
  5
F8
100
AcDbEntity
  8
BORDER
 62
     7
100
AcDbVertex
100
AcDb2dVertex
 10
191.04467
 20
98.244822
 30
0.0
  0
VERTEX
  5
F9
100
AcDbEntity
  8
BORDER
 62
     7
100
AcDbVertex
100
AcDb2dVertex
 10
191.04467
 20
97.956467
 30
0.0
  0
SEQEND
  5
FA
100
AcDbEntity
  8
BORDER
 62
     7
  0
HATCH
  5
F4
100
AcDbEntity
  8
BORDER
 62
     7
100
AcDbHatch
 10
0.0
 20
0.0
 30
0.0
210
0.0
220
0.0
230
1.0
  2
SOLID
 70
     1
 71
     0
 91
        1
 92
        3
 72
     0
 73
     1
 93
        4
 10
191.00470648871527
 20
97.975070529513886
 10
190.98541395399303
 20
98.2300075954861
 10
191.04466959635414
 20
98.244821506076377
 10
191.04466959635414
 20
97.956467013888883
 97
        0
 75
     0
 76
     1
 98
        1
 10
0.0
 20
0.0
  0
MTEXT
  5
F1
100
AcDbEntity
  8
0
 62
     7
100
AcDbMText
 10
112.732482
 20
116.944013
 30
0.0
 40
1.195351
 41
0.0
 71
     1
 72
     2
  1
\fMyriad Roman|b0|i0;ALL DIMENSIONS ARE IN INCHES
  7
STD
210
0.0
220
0.0
230
1.0
 11
1.000001
 21
0.0
 31
0.0
 73
     1
 44
1.0
  0
LINE
  5
F0
100
AcDbEntity
  8
0
 62
     7
100
AcDbLine
 10
150.544816
 20
155.842167
 30
0.0
 11
137.071737
 21
155.842167
 31
0.0
  0
LINE
  5
EF
100
AcDbEntity
  8
0
 62
     7
100
AcDbLine
 10
156.048356
 20
137.314271
 30
0.0
 11
146.33801
 21
137.314271
 31
0.0
  0
LINE
  5
EE
100
AcDbEntity
  8
0
 62
     7
100
AcDbLine
 10
126.087739
 20
169.675259
 30
0.0
 11
120.110843
 21
169.675259
 31
0.0
  0
INSERT
  5
DA
100
AcDbEntity
  8
0
 62
     7
100
AcDbBlockReference
  2
AI9-BLK3
 10
123.240712
 20
125.722731
 30
0.0
  0
INSERT
  5
C5
100
AcDbEntity
  8
0
 62
     7
100
AcDbBlockReference
  2
AI9-BLK2
 10
117.703238
 20
127.216869
 30
0.0
  0
INSERT
  5
B0
100
AcDbEntity
  8
0
 62
     7
100
AcDbBlockReference
  2
AI9-BLK1
 10
133.259738
 20
169.337554
 30
0.0
  0
MTEXT
  5
AE
100
AcDbEntity
  8
0
 62
     7
100
AcDbMText
 10
145.094331
 20
147.991693
 30
0.0
 40
1.647137
 41
0.0
 71
     1
 72
     2
  1
\W0.75;\fMyriad Roman|b0|i0;1.550
  7
STD
210
0.0
220
0.0
230
1.0
 11
1.000001
 21
0.0
 31
0.0
 73
     1
 44
1.0
  0
LINE
  5
AD
100
AcDbEntity
  8
0
 62
     7
100
AcDbLine
 10
147.832492
 20
137.314271
 30
0.0
 11
147.832492
 21
145.933556
 31
0.0
  0
POLYLINE
  5
A8
100
AcDbEntity
  8
0
 62
     7
100
AcDb2dPolyline
 66
     1
 10
0.0
 20
0.0
 30
0.0
 70
     1
  0
VERTEX
  5
A9
100
AcDbEntity
  8
0
 62
     7
100
AcDbVertex
100
AcDb2dVertex
 10
147.832492
 20
137.314271
 30
0.0
  0
VERTEX
  5
AA
100
AcDbEntity
  8
0
 62
     7
100
AcDbVertex
100
AcDb2dVertex
 10
148.14324
 20
139.179102
 30
0.0
  0
VERTEX
  5
AB
100
AcDbEntity
  8
0
 62
     7
100
AcDbVertex
100
AcDb2dVertex
 10
147.521745
 20
139.179102
 30
0.0
  0
SEQEND
  5
AC
100
AcDbEntity
  8
0
 62
     7
  0
HATCH
  5
A7
100
AcDbEntity
  8
0
 62
     7
100
AcDbHatch
 10
0.0
 20
0.0
 30
0.0
210
0.0
220
0.0
230
1.0
  2
SOLID
 70
     1
 71
     0
 91
        1
 92
        3
 72
     0
 73
     1
 93
        3
 10
147.52174479166666
 20
139.17910156249999
 10
148.14324001736111
 20
139.17910156249999
 10
147.83249240451389
 20
137.31427137586803
 97
        0
 75
     0
 76
     1
 98
        1
 10
0.0
 20
0.0
  0
LINE
  5
A6
100
AcDbEntity
  8
0
 62
     7
100
AcDbLine
 10
147.832492
 20
155.842167
 30
0.0
 11
147.832492
 21
148.547866
 31
0.0
  0
POLYLINE
  5
A1
100
AcDbEntity
  8
0
 62
     7
100
AcDb2dPolyline
 66
     1
 10
0.0
 20
0.0
 30
0.0
 70
     1
  0
VERTEX
  5
A2
100
AcDbEntity
  8
0
 62
     7
100
AcDbVertex
100
AcDb2dVertex
 10
147.832492
 20
155.842167
 30
0.0
  0
VERTEX
  5
A3
100
AcDbEntity
  8
0
 62
     7
100
AcDbVertex
100
AcDb2dVertex
 10
147.521745
 20
153.977509
 30
0.0
  0
VERTEX
  5
A4
100
AcDbEntity
  8
0
 62
     7
100
AcDbVertex
100
AcDb2dVertex
 10
148.14324
 20
153.977509
 30
0.0
  0
SEQEND
  5
A5
100
AcDbEntity
  8
0
 62
     7
  0
HATCH
  5
A0
100
AcDbEntity
  8
0
 62
     7
100
AcDbHatch
 10
0.0
 20
0.0
 30
0.0
210
0.0
220
0.0
230
1.0
  2
SOLID
 70
     1
 71
     0
 91
        1
 92
        3
 72
     0
 73
     1
 93
        3
 10
148.14324001736111
 20
153.97750922309027
 10
147.52174479166666
 20
153.97750922309027
 10
147.83249240451389
 20
155.8421671549479
 97
        0
 75
     0
 76
     1
 98
        1
 10
0.0
 20
0.0
  0
MTEXT
  5
9F
100
AcDbEntity
  8
0
 62
     7
100
AcDbMText
 10
150.318473
 20
124.382798
 30
0.0
 40
1.647137
 41
0.0
 71
     1
 72
     2
  1
\W0.75;\fMyriad Roman|b0|i0;(Note 1)
  7
STD
210
0.0
220
0.0
230
1.0
 11
1.000001
 21
0.0
 31
0.0
 73
     1
 44
1.0
  0
MTEXT
  5
9E
100
AcDbEntity
  8
0
 62
     7
100
AcDbMText
 10
148.953871
 20
127.057915
 30
0.0
 40
1.647137
 41
0.0
 71
     1
 72
     2
  1
\W0.75;\fMyriad Roman|b0|i0;#8-32 x 0.35
  7
STD
210
0.0
220
0.0
230
1.0
 11
1.000001
 21
0.0
 31
0.0
 73
     1
 44
1.0
  0
LINE
  5
9D
100
AcDbEntity
  8
0
 62
     7
100
AcDbLine
 10
141.367082
 20
124.757587
 30
0.0
 11
135.888346
 21
127.025494
 31
0.0
  0
LINE
  5
9C
100
AcDbEntity
  8
0
 62
     7
100
AcDbLine
 10
126.386773
 20
131.101731
 30
0.0
 11
140.133049
 21
131.101731
 31
0.0
  0
LINE
  5
9B
100
AcDbEntity
  8
0
 62
     7
100
AcDbLine
 10
140.133049
 20
123.332007
 30
0.0
 11
126.386773
 21
123.332007
 31
0.0
  0
LINE
  5
9A
100
AcDbEntity
  8
0
 62
     7
100
AcDbLine
 10
126.087739
 20
123.630697
 30
0.0
 11
126.087739
 21
130.802696
 31
0.0
  0
SPLINE
  5
99
100
AcDbEntity
  8
0
 62
     7
100
AcDbSpline
210
0.0
220
0.0
230
1.0
 70
     8
 71
     3
 72
     8
 73
     4
 74
     0
 42
0.00000001
 43
0.00000001
 40
0.0
 40
0.0
 40
0.0
 40
0.0
 40
1.0
 40
1.0
 40
1.0
 40
1.0
 10
126.08773871527777
 20
123.63069661458333
 30
0.0
 10
126.08773871527777
 20
123.4656765407986
 30
0.0
 10
126.22140842013887
 20
123.33200683593749
 30
0.0
 10
126.38677300347221
 20
123.33200683593749
 30
0.0
  0
SPLINE
  5
98
100
AcDbEntity
  8
0
 62
     7
100
AcDbSpline
210
0.0
220
0.0
230
1.0
 70
     8
 71
     3
 72
     8
 73
     4
 74
     0
 42
0.00000001
 43
0.00000001
 40
0.0
 40
0.0
 40
0.0
 40
0.0
 40
1.0
 40
1.0
 40
1.0
 40
1.0
 10
126.38677300347221
 20
131.10173068576387
 30
0.0
 10
126.22140842013887
 20
131.10173068576387
 30
0.0
 10
126.08773871527777
 20
130.96806098090278
 30
0.0
 10
126.08773871527777
 20
130.80269639756943
 30
0.0
  0
LINE
  5
97
100
AcDbEntity
  8
0
 62
     7
100
AcDbLine
 10
132.183835
 20
128.113455
 30
0.0
 11
134.335642
 21
128.113455
 31
0.0
  0
CIRCLE
  5
96
100
AcDbEntity
  8
0
 62
     7
100
AcDbCircle
 10
133.259911
 20
128.113455
 30
0.0
 40
0.81287
  0
CIRCLE
  5
95
100
AcDbEntity
  8
0
 62
     7
100
AcDbCircle
 10
133.259738
 20
128.113455
 30
0.0
 40
0.98013
  0
POLYLINE
  5
90
100
AcDbEntity
  8
0
 62
     7
100
AcDb2dPolyline
 66
     1
 10
0.0
 20
0.0
 30
0.0
 70
     1
  0
VERTEX
  5
91
100
AcDbEntity
  8
0
 62
     7
100
AcDbVertex
100
AcDb2dVertex
 10
136.007202
 20
127.31247
 30
0.0
  0
VERTEX
  5
92
100
AcDbEntity
  8
0
 62
     7
100
AcDbVertex
100
AcDb2dVertex
 10
135.769491
 20
126.738173
 30
0.0
  0
VERTEX
  5
93
100
AcDbEntity
  8
0
 62
     7
100
AcDbVertex
100
AcDb2dVertex
 10
134.165454
 20
127.738628
 30
0.0
  0
SEQEND
  5
94
100
AcDbEntity
  8
0
 62
     7
  0
HATCH
  5
8F
100
AcDbEntity
  8
0
 62
     7
100
AcDbHatch
 10
0.0
 20
0.0
 30
0.0
210
0.0
220
0.0
230
1.0
  2
SOLID
 70
     1
 71
     0
 91
        1
 92
        3
 72
     0
 73
     1
 93
        3
 10
136.0072021484375
 20
127.31247016059027
 10
135.76949055989581
 20
126.73817274305554
 10
134.16545410156249
 20
127.73862847222222
 97
        0
 75
     0
 76
     1
 98
        1
 10
0.0
 20
0.0
  0
LINE
  5
8E
100
AcDbEntity
  8
0
 62
     7
100
AcDbLine
 10
133.259738
 20
127.037552
 30
0.0
 11
133.259738
 21
129.189014
 31
0.0
  0
LINE
  5
8D
100
AcDbEntity
  8
0
 62
     7
100
AcDbLine
 10
145.805743
 20
124.757587
 30
0.0
 11
141.367082
 21
124.757587
 31
0.0
  0
LINE
  5
8C
100
AcDbEntity
  8
0
 62
     7
100
AcDbLine
 10
140.431738
 20
130.802696
 30
0.0
 11
140.431738
 21
123.630697
 31
0.0
  0
SPLINE
  5
8B
100
AcDbEntity
  8
0
 62
     7
100
AcDbSpline
210
0.0
220
0.0
230
1.0
 70
     8
 71
     3
 72
     8
 73
     4
 74
     0
 42
0.00000001
 43
0.00000001
 40
0.0
 40
0.0
 40
0.0
 40
0.0
 40
1.0
 40
1.0
 40
1.0
 40
1.0
 10
140.13304850260414
 20
123.33200683593749
 30
0.0
 10
140.29806857638889
 20
123.33200683593749
 30
0.0
 10
140.43173828124998
 20
123.4656765407986
 30
0.0
 10
140.43173828124998
 20
123.63069661458333
 30
0.0
  0
SPLINE
  5
8A
100
AcDbEntity
  8
0
 62
     7
100
AcDbSpline
210
0.0
220
0.0
230
1.0
 70
     8
 71
     3
 72
     8
 73
     4
 74
     0
 42
0.00000001
 43
0.00000001
 40
0.0
 40
0.0
 40
0.0
 40
0.0
 40
1.0
 40
1.0
 40
1.0
 40
1.0
 10
140.43173828124998
 20
130.80269639756943
 30
0.0
 10
140.43173828124998
 20
130.96806098090278
 30
0.0
 10
140.29806857638889
 20
131.10173068576387
 30
0.0
 10
140.13304850260414
 20
131.10173068576387
 30
0.0
  0
MTEXT
  5
89
100
AcDbEntity
  8
0
 62
     7
100
AcDbMText
 10
154.96763
 20
164.161938
 30
0.0
 40
1.647137
 41
0.0
 71
     1
 72
     2
  1
\W0.75;\fMyriad Roman|b0|i0;(SM05 COMPATIBLE)
  7
STD
210
0.0
220
0.0
230
1.0
 11
1.000001
 21
0.0
 31
0.0
 73
     1
 44
1.0
  0
MTEXT
  5
88
100
AcDbEntity
  8
0
 62
     7
100
AcDbMText
 10
155.634945
 20
166.837054
 30
0.0
 40
1.647137
 41
0.0
 71
     1
 72
     2
  1
\W0.75;\fMyriad Roman|b0|i0;#0.535-40 THREAD
  7
STD
210
0.0
220
0.0
230
1.0
 11
1.000001
 21
0.0
 31
0.0
 73
     1
 44
1.0
  0
MTEXT
  5
87
100
AcDbEntity
  8
0
 62
     7
100
AcDbMText
 10
156.053524
 20
169.511826
 30
0.0
 40
1.647137
 41
0.0
 71
     1
 72
     2
  1
\W0.75;\fMyriad Roman|b0|i0;CLEAR APERTURE
  7
STD
210
0.0
220
0.0
230
1.0
 11
1.000001
 21
0.0
 31
0.0
 73
     1
 44
1.0
  0
MTEXT
  5
86
100
AcDbEntity
  8
0
 62
     7
100
AcDbMText
 10
159.572689
 20
172.186771
 30
0.0
 40
1.647137
 41
0.0
 71
     1
 72
     2
  1
\W0.75;\fMyriad Roman|b0|i0;∅.50
  7
STD
210
0.0
220
0.0
230
1.0
 11
1.000001
 21
0.0
 31
0.0
 73
     1
 44
1.0
  0
LINE
  5
85
100
AcDbEntity
  8
0
 62
     7
100
AcDbLine
 10
152.881624
 20
166.944332
 30
0.0
 11
148.648636
 21
166.944332
 31
0.0
  0
LINE
  5
84
100
AcDbEntity
  8
0
 62
     7
100
AcDbLine
 10
133.259738
 20
159.379763
 30
0.0
 11
133.259738
 21
171.169397
 31
0.0
  0
LINE
  5
83
100
AcDbEntity
  8
0
 62
     7
100
AcDbLine
 10
148.648636
 20
166.944332
 30
0.0
 11
137.22711
 21
158.675758
 31
0.0
  0
LINE
  5
82
100
AcDbEntity
  8
0
 62
     7
100
AcDbLine
 10
140.431738
 20
160.922305
 30
0.0
 11
140.431738
 21
137.613306
 31
0.0
  0
LINE
  5
81
100
AcDbEntity
  8
0
 62
     7
100
AcDbLine
 10
126.087739
 20
137.613306
 30
0.0
 11
126.087739
 21
160.922305
 31
0.0
  0
POLYLINE
  5
7C
100
AcDbEntity
  8
0
 62
     7
100
AcDb2dPolyline
 66
     1
 10
0.0
 20
0.0
 30
0.0
 70
     1
  0
VERTEX
  5
7D
100
AcDbEntity
  8
0
 62
     7
100
AcDbVertex
100
AcDb2dVertex
 10
137.045209
 20
158.927595
 30
0.0
  0
VERTEX
  5
7E
100
AcDbEntity
  8
0
 62
     7
100
AcDbVertex
100
AcDb2dVertex
 10
137.409356
 20
158.424094
 30
0.0
  0
VERTEX
  5
7F
100
AcDbEntity
  8
0
 62
     7
100
AcDbVertex
100
AcDb2dVertex
 10
135.716781
 20
157.582285
 30
0.0
  0
SEQEND
  5
80
100
AcDbEntity
  8
0
 62
     7
  0
HATCH
  5
7B
100
AcDbEntity
  8
0
 62
     7
100
AcDbHatch
 10
0.0
 20
0.0
 30
0.0
210
0.0
220
0.0
230
1.0
  2
SOLID
 70
     1
 71
     0
 91
        1
 92
        3
 72
     0
 73
     1
 93
        3
 10
137.04520941840278
 20
158.92759467230903
 10
137.4093560112847
 20
158.42409396701387
 10
135.71678059895831
 20
157.58228488498261
 97
        0
 75
     0
 76
     1
 98
        1
 10
0.0
 20
0.0
  0
LINE
  5
7A
100
AcDbEntity
  8
0
 62
     7
100
AcDbLine
 10
140.133049
 20
137.314271
 30
0.0
 11
126.386773
 21
137.314271
 31
0.0
  0
SPLINE
  5
79
100
AcDbEntity
  8
0
 62
     7
100
AcDbSpline
210
0.0
220
0.0
230
1.0
 70
     8
 71
     3
 72
     8
 73
     4
 74
     0
 42
0.00000001
 43
0.00000001
 40
0.0
 40
0.0
 40
0.0
 40
0.0
 40
1.0
 40
1.0
 40
1.0
 40
1.0
 10
126.08773871527777
 20
137.61330566406249
 30
0.0
 10
126.08773871527777
 20
137.44794108072915
 30
0.0
 10
126.22140842013887
 20
137.31427137586803
 30
0.0
 10
126.38677300347221
 20
137.31427137586803
 30
0.0
  0
CIRCLE
  5
78
100
AcDbEntity
  8
0
 62
     7
100
AcDbCircle
 10
133.259911
 20
155.842167
 30
0.0
 40
3.010841
  0
SPLINE
  5
77
100
AcDbEntity
  8
0
 62
     7
100
AcDbSpline
210
0.0
220
0.0
230
1.0
 70
     8
 71
     3
 72
     8
 73
     4
 74
     0
 42
0.00000001
 43
0.00000001
 40
0.0
 40
0.0
 40
0.0
 40
0.0
 40
1.0
 40
1.0
 40
1.0
 40
1.0
 10
133.33036295572916
 20
154.14941948784721
 30
0.0
 10
134.21092936197917
 20
154.18610975477429
 30
0.0
 10
134.91579589843749
 20
154.89149305555554
 30
0.0
 10
134.95231391059028
 20
155.77154269748263
 30
0.0
  0
SPLINE
  5
76
100
AcDbEntity
  8
0
 62
     7
100
AcDbSpline
210
0.0
220
0.0
230
1.0
 70
     8
 71
     3
 72
     8
 73
     4
 74
     0
 42
0.00000001
 43
0.00000001
 40
0.0
 40
0.0
 40
0.0
 40
0.0
 40
1.0
 40
1.0
 40
1.0
 40
1.0
 10
131.56716308593749
 20
155.77154269748263
 30
0.0
 10
131.60368109809028
 20
154.89149305555554
 30
0.0
 10
132.3088921440972
 20
154.18610975477429
 30
0.0
 10
133.18911404079859
 20
154.14941948784721
 30
0.0
  0
CIRCLE
  5
75
100
AcDbEntity
  8
0
 62
     7
100
AcDbCircle
 10
133.259738
 20
155.842167
 30
0.0
 40
2.8236
  0
SPLINE
  5
74
100
AcDbEntity
  8
0
 62
     7
100
AcDbSpline
210
0.0
220
0.0
230
1.0
 70
     8
 71
     3
 72
     8
 73
     4
 74
     0
 42
0.00000001
 43
0.00000001
 40
0.0
 40
0.0
 40
0.0
 40
0.0
 40
1.0
 40
1.0
 40
1.0
 40
1.0
 10
133.18911404079859
 20
157.53491482204859
 30
0.0
 10
132.3088921440972
 20
157.49822455512151
 30
0.0
 10
131.60368109809028
 20
156.79301350911456
 30
0.0
 10
131.56716308593749
 20
155.91279161241317
 30
0.0
  0
LINE
  5
73
100
AcDbEntity
  8
0
 62
     7
100
AcDbLine
 10
131.567163
 20
155.912792
 30
0.0
 11
133.189114
 21
155.912792
 31
0.0
  0
LINE
  5
72
100
AcDbEntity
  8
0
 62
     7
100
AcDbLine
 10
131.567163
 20
155.771543
 30
0.0
 11
133.189114
 21
155.771543
 31
0.0
  0
LINE
  5
71
100
AcDbEntity
  8
0
 62
     7
100
AcDbLine
 10
133.189114
 20
157.534915
 30
0.0
 11
133.189114
 21
155.912792
 31
0.0
  0
SPLINE
  5
70
100
AcDbEntity
  8
0
 62
     7
100
AcDbSpline
210
0.0
220
0.0
230
1.0
 70
     8
 71
     3
 72
     8
 73
     4
 74
     0
 42
0.00000001
 43
0.00000001
 40
0.0
 40
0.0
 40
0.0
 40
0.0
 40
1.0
 40
1.0
 40
1.0
 40
1.0
 10
134.95231391059028
 20
155.91279161241317
 30
0.0
 10
134.91579589843749
 20
156.79301350911456
 30
0.0
 10
134.21092936197917
 20
157.49822455512151
 30
0.0
 10
133.33036295572916
 20
157.53491482204859
 30
0.0
  0
LINE
  5
6F
100
AcDbEntity
  8
0
 62
     7
100
AcDbLine
 10
133.330363
 20
157.534915
 30
0.0
 11
133.330363
 21
155.912792
 31
0.0
  0
LINE
  5
6E
100
AcDbEntity
  8
0
 62
     7
100
AcDbLine
 10
133.330363
 20
155.771543
 30
0.0
 11
133.330363
 21
154.149419
 31
0.0
  0
LINE
  5
6D
100
AcDbEntity
  8
0
 62
     7
100
AcDbLine
 10
133.189114
 20
155.771543
 30
0.0
 11
133.189114
 21
154.149419
 31
0.0
  0
LINE
  5
6C
100
AcDbEntity
  8
0
 62
     7
100
AcDbLine
 10
133.330363
 20
155.771543
 30
0.0
 11
134.952314
 21
155.771543
 31
0.0
  0
LINE
  5
6B
100
AcDbEntity
  8
0
 62
     7
100
AcDbLine
 10
133.330363
 20
155.912792
 30
0.0
 11
134.952314
 21
155.912792
 31
0.0
  0
SPLINE
  5
6A
100
AcDbEntity
  8
0
 62
     7
100
AcDbSpline
210
0.0
220
0.0
230
1.0
 70
     8
 71
     3
 72
     8
 73
     4
 74
     0
 42
0.00000001
 43
0.00000001
 40
0.0
 40
0.0
 40
0.0
 40
0.0
 40
1.0
 40
1.0
 40
1.0
 40
1.0
 10
140.13304850260414
 20
137.31427137586803
 30
0.0
 10
140.29806857638889
 20
137.31427137586803
 30
0.0
 10
140.43173828124998
 20
137.44794108072915
 30
0.0
 10
140.43173828124998
 20
137.61330566406249
 30
0.0
  0
LINE
  5
69
100
AcDbEntity
  8
0
 62
     7
100
AcDbLine
 10
133.259738
 20
169.675259
 30
0.0
 11
139.236635
 21
169.675259
 31
0.0
  0
LINE
  5
68
100
AcDbEntity
  8
0
 62
     7
100
AcDbLine
 10
126.386773
 20
161.221167
 30
0.0
 11
140.133049
 21
161.221167
 31
0.0
  0
MTEXT
  5
67
100
AcDbEntity
  8
0
 62
     7
100
AcDbMText
 10
127.615639
 20
170.426327
 30
0.0
 40
1.647137
 41
0.0
 71
     1
 72
     2
  1
\W0.75;\fMyriad Roman|b0|i0;.600
  7
STD
210
0.0
220
0.0
230
1.0
 11
1.000001
 21
0.0
 31
0.0
 73
     1
 44
1.0
  0
LINE
  5
66
100
AcDbEntity
  8
0
 62
     7
100
AcDbLine
 10
126.087739
 20
161.520029
 30
0.0
 11
126.087739
 21
171.169397
 31
0.0
  0
SPLINE
  5
65
100
AcDbEntity
  8
0
 62
     7
100
AcDbSpline
210
0.0
220
0.0
230
1.0
 70
     8
 71
     3
 72
     8
 73
     4
 74
     0
 42
0.00000001
 43
0.00000001
 40
0.0
 40
0.0
 40
0.0
 40
0.0
 40
1.0
 40
1.0
 40
1.0
 40
1.0
 10
126.38677300347221
 20
161.22116699218748
 30
0.0
 10
126.22140842013887
 20
161.22116699218748
 30
0.0
 10
126.08773871527777
 20
161.08749728732639
 30
0.0
 10
126.08773871527777
 20
160.92230495876734
 30
0.0
  0
POLYLINE
  5
60
100
AcDbEntity
  8
0
 62
     7
100
AcDb2dPolyline
 66
     1
 10
0.0
 20
0.0
 30
0.0
 70
     1
  0
VERTEX
  5
61
100
AcDbEntity
  8
0
 62
     7
100
AcDbVertex
100
AcDb2dVertex
 10
126.087739
 20
169.675259
 30
0.0
  0
VERTEX
  5
62
100
AcDbEntity
  8
0
 62
     7
100
AcDbVertex
100
AcDb2dVertex
 10
124.223253
 20
169.986179
 30
0.0
  0
VERTEX
  5
63
100
AcDbEntity
  8
0
 62
     7
100
AcDbVertex
100
AcDb2dVertex
 10
124.223253
 20
169.364511
 30
0.0
  0
SEQEND
  5
64
100
AcDbEntity
  8
0
 62
     7
  0
HATCH
  5
5F
100
AcDbEntity
  8
0
 62
     7
100
AcDbHatch
 10
0.0
 20
0.0
 30
0.0
210
0.0
220
0.0
230
1.0
  2
SOLID
 70
     1
 71
     0
 91
        1
 92
        3
 72
     0
 73
     1
 93
        3
 10
124.22325303819443
 20
169.36451144748261
 10
124.22325303819443
 20
169.98617892795139
 10
126.08773871527777
 20
169.67525906032984
 97
        0
 75
     0
 76
     1
 98
        1
 10
0.0
 20
0.0
  0
POLYLINE
  5
5A
100
AcDbEntity
  8
0
 62
     7
100
AcDb2dPolyline
 66
     1
 10
0.0
 20
0.0
 30
0.0
 70
     1
  0
VERTEX
  5
5B
100
AcDbEntity
  8
0
 62
     7
100
AcDbVertex
100
AcDb2dVertex
 10
133.259738
 20
169.675259
 30
0.0
  0
VERTEX
  5
5C
100
AcDbEntity
  8
0
 62
     7
100
AcDbVertex
100
AcDb2dVertex
 10
135.124569
 20
169.364511
 30
0.0
  0
VERTEX
  5
5D
100
AcDbEntity
  8
0
 62
     7
100
AcDbVertex
100
AcDb2dVertex
 10
135.124569
 20
169.986179
 30
0.0
  0
SEQEND
  5
5E
100
AcDbEntity
  8
0
 62
     7
  0
HATCH
  5
59
100
AcDbEntity
  8
0
 62
     7
100
AcDbHatch
 10
0.0
 20
0.0
 30
0.0
210
0.0
220
0.0
230
1.0
  2
SOLID
 70
     1
 71
     0
 91
        1
 92
        3
 72
     0
 73
     1
 93
        3
 10
135.12456868489582
 20
169.98617892795139
 10
135.12456868489582
 20
169.36451144748261
 10
133.25973849826389
 20
169.67525906032984
 97
        0
 75
     0
 76
     1
 98
        1
 10
0.0
 20
0.0
  0
SPLINE
  5
58
100
AcDbEntity
  8
0
 62
     7
100
AcDbSpline
210
0.0
220
0.0
230
1.0
 70
     8
 71
     3
 72
     8
 73
     4
 74
     0
 42
0.00000001
 43
0.00000001
 40
0.0
 40
0.0
 40
0.0
 40
0.0
 40
1.0
 40
1.0
 40
1.0
 40
1.0
 10
140.43173828124998
 20
160.92230495876734
 30
0.0
 10
140.43173828124998
 20
161.08749728732639
 30
0.0
 10
140.29806857638889
 20
161.22116699218748
 30
0.0
 10
140.13304850260414
 20
161.22116699218748
 30
0.0
  0
MTEXT
  5
57
100
AcDbEntity
  8
0
 62
     7
100
AcDbMText
 10
72.940251
 20
139.635037
 30
0.0
 40
0.164481
 41
0.0
 71
     1
 72
     2
  1
\fArial Black|b0|i0;3
  7
STD
210
0.0
220
0.0
230
1.0
 11
1.000001
 21
0.0
 31
0.0
 73
     1
 44
1.0
  0
MTEXT
  5
56
100
AcDbEntity
  8
0
 62
     7
100
AcDbMText
 10
72.478608
 20
140.446357
 30
0.0
 40
0.164481
 41
0.0
 71
     1
 72
     2
  1
\fArial Black|b0|i0;2
  7
STD
210
0.0
220
0.0
230
1.0
 11
1.000001
 21
0.0
 31
0.0
 73
     1
 44
1.0
  0
MTEXT
  5
55
100
AcDbEntity
  8
0
 62
     7
100
AcDbMText
 10
72.94783
 20
141.272319
 30
0.0
 40
0.164481
 41
0.0
 71
     1
 72
     2
  1
\fArial Black|b0|i0;1
  7
STD
210
0.0
220
0.0
230
1.0
 11
1.000001
 21
0.0
 31
0.0
 73
     1
 44
1.0
  0
MTEXT
  5
54
100
AcDbEntity
  8
0
 62
     7
100
AcDbMText
 10
73.878522
 20
139.635037
 30
0.0
 40
0.164481
 41
0.0
 71
     1
 72
     2
  1
\fArial Black|b0|i0;4
  7
STD
210
0.0
220
0.0
230
1.0
 11
1.000001
 21
0.0
 31
0.0
 73
     1
 44
1.0
  0
MTEXT
  5
53
100
AcDbEntity
  8
0
 62
     7
100
AcDbMText
 10
73.885929
 20
141.264912
 30
0.0
 40
0.164481
 41
0.0
 71
     1
 72
     2
  1
\fArial Black|b0|i0;6
  7
STD
210
0.0
220
0.0
230
1.0
 11
1.000001
 21
0.0
 31
0.0
 73
     1
 44
1.0
  0
MTEXT
  5
52
100
AcDbEntity
  8
0
 62
     7
100
AcDbMText
 10
74.362558
 20
140.438778
 30
0.0
 40
0.164481
 41
0.0
 71
     1
 72
     2
  1
\fArial Black|b0|i0;5
  7
STD
210
0.0
220
0.0
230
1.0
 11
1.000001
 21
0.0
 31
0.0
 73
     1
 44
1.0
  0
LINE
  5
51
100
AcDbEntity
  8
0
 62
     7
100
AcDbLine
 10
157.375062
 20
137.314271
 30
0.0
 11
141.400155
 21
137.314271
 31
0.0
  0
LINE
  5
50
100
AcDbEntity
  8
0
 62
     7
100
AcDbLine
 10
157.375062
 20
161.221167
 30
0.0
 11
141.400155
 21
161.221167
 31
0.0
  0
LINE
  5
4F
100
AcDbEntity
  8
0
 62
     7
100
AcDbLine
 10
154.53906
 20
139.179102
 30
0.0
 11
154.53906
 21
147.927405
 31
0.0
  0
LINE
  5
4E
100
AcDbEntity
  8
0
 62
     7
100
AcDbLine
 10
154.53906
 20
159.356337
 30
0.0
 11
154.53906
 21
150.398227
 31
0.0
  0
POLYLINE
  5
49
100
AcDbEntity
  8
0
 62
     7
100
AcDb2dPolyline
 66
     1
 10
0.0
 20
0.0
 30
0.0
 70
     1
  0
VERTEX
  5
4A
100
AcDbEntity
  8
0
 62
     7
100
AcDbVertex
100
AcDb2dVertex
 10
154.228312
 20
139.179102
 30
0.0
  0
VERTEX
  5
4B
100
AcDbEntity
  8
0
 62
     7
100
AcDbVertex
100
AcDb2dVertex
 10
154.849807
 20
139.179102
 30
0.0
  0
VERTEX
  5
4C
100
AcDbEntity
  8
0
 62
     7
100
AcDbVertex
100
AcDb2dVertex
 10
154.53906
 20
137.314271
 30
0.0
  0
SEQEND
  5
4D
100
AcDbEntity
  8
0
 62
     7
  0
HATCH
  5
48
100
AcDbEntity
  8
0
 62
     7
100
AcDbHatch
 10
0.0
 20
0.0
 30
0.0
210
0.0
220
0.0
230
1.0
  2
SOLID
 70
     1
 71
     0
 91
        1
 92
        3
 72
     0
 73
     1
 93
        3
 10
154.22831217447916
 20
139.17910156249999
 10
154.8498074001736
 20
139.17910156249999
 10
154.53905978732638
 20
137.31427137586803
 97
        0
 75
     0
 76
     1
 98
        1
 10
0.0
 20
0.0
  0
POLYLINE
  5
43
100
AcDbEntity
  8
0
 62
     7
100
AcDb2dPolyline
 66
     1
 10
0.0
 20
0.0
 30
0.0
 70
     1
  0
VERTEX
  5
44
100
AcDbEntity
  8
0
 62
     7
100
AcDbVertex
100
AcDb2dVertex
 10
154.228312
 20
159.356337
 30
0.0
  0
VERTEX
  5
45
100
AcDbEntity
  8
0
 62
     7
100
AcDbVertex
100
AcDb2dVertex
 10
154.849807
 20
159.356337
 30
0.0
  0
VERTEX
  5
46
100
AcDbEntity
  8
0
 62
     7
100
AcDbVertex
100
AcDb2dVertex
 10
154.53906
 20
161.221167
 30
0.0
  0
SEQEND
  5
47
100
AcDbEntity
  8
0
 62
     7
  0
HATCH
  5
42
100
AcDbEntity
  8
0
 62
     7
100
AcDbHatch
 10
0.0
 20
0.0
 30
0.0
210
0.0
220
0.0
230
1.0
  2
SOLID
 70
     1
 71
     0
 91
        1
 92
        3
 72
     0
 73
     1
 93
        3
 10
154.53905978732638
 20
161.22116699218748
 10
154.8498074001736
 20
159.35633680555554
 10
154.22831217447916
 20
159.35633680555554
 97
        0
 75
     0
 76
     1
 98
        1
 10
0.0
 20
0.0
  0
MTEXT
  5
41
100
AcDbEntity
  8
0
 62
     7
100
AcDbMText
 10
152.66355
 20
149.991571
 30
0.0
 40
1.647137
 41
0.0
 71
     1
 72
     2
  1
\W0.75;\fMyriad Roman|b0|i0;2.000
  7
STD
210
0.0
220
0.0
230
1.0
 11
1.000001
 21
0.0
 31
0.0
 73
     1
 44
1.0
  0
MTEXT
  5
40
100
AcDbEntity
  8
0
 62
     7
100
AcDbMText
 10
33.908869
 20
175.888047
 30
0.0
 40
1.195351
 41
0.0
 71
     1
 72
     2
  1
\fArial Black|b0|i0;4
  7
STD
210
0.0
220
0.0
230
1.0
 11
1.000001
 21
0.0
 31
0.0
 73
     1
 44
1.0
  0
MTEXT
  5
3F
100
AcDbEntity
  8
0
 62
     7
100
AcDbMText
 10
29.34429
 20
175.845845
 30
0.0
 40
1.195351
 41
0.0
 71
     1
 72
     2
  1
\fArial Black|b0|i0;3
  7
STD
210
0.0
220
0.0
230
1.0
 11
1.000001
 21
0.0
 31
0.0
 73
     1
 44
1.0
  0
MTEXT
  5
3E
100
AcDbEntity
  8
0
 62
     7
100
AcDbMText
 10
29.423872
 20
184.074455
 30
0.0
 40
1.195351
 41
0.0
 71
     1
 72
     2
  1
\fArial Black|b0|i0;1
  7
STD
210
0.0
220
0.0
230
1.0
 11
1.000001
 21
0.0
 31
0.0
 73
     1
 44
1.0
  0
MTEXT
  5
3D
100
AcDbEntity
  8
0
 62
     7
100
AcDbMText
 10
26.908952
 20
179.943958
 30
0.0
 40
1.195351
 41
0.0
 71
     1
 72
     2
  1
\fArial Black|b0|i0;2
  7
STD
210
0.0
220
0.0
230
1.0
 11
1.000001
 21
0.0
 31
0.0
 73
     1
 44
1.0
  0
MTEXT
  5
3C
100
AcDbEntity
  8
0
 62
     7
100
AcDbMText
 10
36.371251
 20
179.949125
 30
0.0
 40
1.195351
 41
0.0
 71
     1
 72
     2
  1
\fArial Black|b0|i0;5
  7
STD
210
0.0
220
0.0
230
1.0
 11
1.000001
 21
0.0
 31
0.0
 73
     1
 44
1.0
  0
MTEXT
  5
3B
100
AcDbEntity
  8
0
 62
     7
100
AcDbMText
 10
33.988279
 20
184.037248
 30
0.0
 40
1.195351
 41
0.0
 71
     1
 72
     2
  1
\fArial Black|b0|i0;6
  7
STD
210
0.0
220
0.0
230
1.0
 11
1.000001
 21
0.0
 31
0.0
 73
     1
 44
1.0
  0
CIRCLE
  5
3A
100
AcDbEntity
  8
0
 62
     7
100
AcDbCircle
 10
65.025574
 20
179.366657
 30
0.0
 40
11.294659
  0
LINE
  5
39
100
AcDbEntity
  8
0
 62
     7
100
AcDbLine
 10
58.254842
 20
179.084332
 30
0.0
 11
64.743335
 21
179.084332
 31
0.0
  0
LINE
  5
38
100
AcDbEntity
  8
0
 62
     7
100
AcDbLine
 10
58.254842
 20
179.649155
 30
0.0
 11
64.743335
 21
179.649155
 31
0.0
  0
SPLINE
  5
37
100
AcDbEntity
  8
0
 62
     7
100
AcDbSpline
210
0.0
220
0.0
230
1.0
 70
     8
 71
     3
 72
     8
 73
     4
 74
     0
 42
0.00000001
 43
0.00000001
 40
0.0
 40
0.0
 40
0.0
 40
0.0
 40
1.0
 40
1.0
 40
1.0
 40
1.0
 10
64.743334960937489
 20
186.13764784071179
 30
0.0
 10
61.222275119357633
 20
185.99071451822914
 30
0.0
 10
58.401603190104161
 20
183.17004258897569
 30
0.0
 10
58.254842122395829
 20
179.64915500217012
 30
0.0
  0
SPLINE
  5
36
100
AcDbEntity
  8
0
 62
     7
100
AcDbSpline
210
0.0
220
0.0
230
1.0
 70
     8
 71
     3
 72
     8
 73
     4
 74
     0
 42
0.00000001
 43
0.00000001
 40
0.0
 40
0.0
 40
0.0
 40
0.0
 40
1.0
 40
1.0
 40
1.0
 40
1.0
 10
58.254842122395829
 20
179.08433159722222
 30
0.0
 10
58.401603190104161
 20
175.56344401041665
 30
0.0
 10
61.222275119357633
 20
172.74277208116317
 30
0.0
 10
64.743334960937489
 20
172.59583875868054
 30
0.0
  0
LINE
  5
35
100
AcDbEntity
  8
0
 62
     7
100
AcDbLine
 10
64.743335
 20
179.084332
 30
0.0
 11
64.743335
 21
172.595839
 31
0.0
  0
LINE
  5
34
100
AcDbEntity
  8
0
 62
     7
100
AcDbLine
 10
65.307986
 20
179.084332
 30
0.0
 11
65.307986
 21
172.595839
 31
0.0
  0
SPLINE
  5
33
100
AcDbEntity
  8
0
 62
     7
100
AcDbSpline
210
0.0
220
0.0
230
1.0
 70
     8
 71
     3
 72
     8
 73
     4
 74
     0
 42
0.00000001
 43
0.00000001
 40
0.0
 40
0.0
 40
0.0
 40
0.0
 40
1.0
 40
1.0
 40
1.0
 40
1.0
 10
65.307986111111106
 20
172.59583875868054
 30
0.0
 10
68.829045952690961
 20
172.74277208116317
 30
0.0
 10
71.64971788194444
 20
175.56344401041665
 30
0.0
 10
71.796651204427079
 20
179.08433159722222
 30
0.0
  0
LINE
  5
32
100
AcDbEntity
  8
0
 62
     7
100
AcDbLine
 10
65.307986
 20
179.649155
 30
0.0
 11
71.796651
 21
179.649155
 31
0.0
  0
LINE
  5
31
100
AcDbEntity
  8
0
 62
     7
100
AcDbLine
 10
65.307986
 20
179.084332
 30
0.0
 11
71.796651
 21
179.084332
 31
0.0
  0
SPLINE
  5
30
100
AcDbEntity
  8
0
 62
     7
100
AcDbSpline
210
0.0
220
0.0
230
1.0
 70
     8
 71
     3
 72
     8
 73
     4
 74
     0
 42
0.00000001
 43
0.00000001
 40
0.0
 40
0.0
 40
0.0
 40
0.0
 40
1.0
 40
1.0
 40
1.0
 40
1.0
 10
71.796651204427079
 20
179.64915500217012
 30
0.0
 10
71.64971788194444
 20
183.17004258897569
 30
0.0
 10
68.829045952690961
 20
185.99071451822914
 30
0.0
 10
65.307986111111106
 20
186.13764784071179
 30
0.0
  0
LINE
  5
2F
100
AcDbEntity
  8
0
 62
     7
100
AcDbLine
 10
65.307986
 20
186.137648
 30
0.0
 11
65.307986
 21
179.649155
 31
0.0
  0
LINE
  5
2E
100
AcDbEntity
  8
0
 62
     7
100
AcDbLine
 10
64.743335
 20
186.137648
 30
0.0
 11
64.743335
 21
179.649155
 31
0.0
  0
MTEXT
  5
2D
100
AcDbEntity
  8
0
 62
     7
100
AcDbMText
 10
61.016431
 20
183.1932
 30
0.0
 40
1.195351
 41
0.0
 71
     1
 72
     2
  1
\fArial Black|b0|i0;Q2
  7
STD
210
0.0
220
0.0
230
1.0
 11
1.000001
 21
0.0
 31
0.0
 73
     1
 44
1.0
  0
MTEXT
  5
2C
100
AcDbEntity
  8
0
 62
     7
100
AcDbMText
 10
66.603342
 20
183.1932
 30
0.0
 40
1.195351
 41
0.0
 71
     1
 72
     2
  1
\fArial Black|b0|i0;Q1
  7
STD
210
0.0
220
0.0
230
1.0
 11
1.000001
 21
0.0
 31
0.0
 73
     1
 44
1.0
  0
MTEXT
  5
2B
100
AcDbEntity
  8
0
 62
     7
100
AcDbMText
 10
61.016431
 20
177.311905
 30
0.0
 40
1.195351
 41
0.0
 71
     1
 72
     2
  1
\fArial Black|b0|i0;Q3
  7
STD
210
0.0
220
0.0
230
1.0
 11
1.000001
 21
0.0
 31
0.0
 73
     1
 44
1.0
  0
MTEXT
  5
2A
100
AcDbEntity
  8
0
 62
     7
100
AcDbMText
 10
66.603342
 20
177.311905
 30
0.0
 40
1.195351
 41
0.0
 71
     1
 72
     2
  1
\fArial Black|b0|i0;Q4
  7
STD
210
0.0
220
0.0
230
1.0
 11
1.000001
 21
0.0
 31
0.0
 73
     1
 44
1.0
  0
ENDSEC
  0
SECTION
  2
OBJECTS
  0
DICTIONARY
  5
19
100
AcDbDictionary
280
     0
281
     1
  3
ACAD_GROUP
350
1A
  3
ACAD_MLINESTYLE
350
1B
  3
ACAD_LAYOUT
350
1E
  3
ACAD_PLOTSETTINGS
350
22
  3
ACAD_PLOTSTYLENAME
350
1F
  3
ACAD_WIPEOUT_VARS
350
23
  0
DICTIONARY
  5
1A
102
{ACAD_REACTORS
330
19
102
}
100
AcDbDictionary
280
     0
281
     1
  0
DICTIONARY
  5
1B
102
{ACAD_REACTORS
330
19
102
}
100
AcDbDictionary
280
     0
281
     1
  3
Standard
350
1C
  0
MLINESTYLE
  5
1C
102
{ACAD_REACTORS
330
1B
102
}
100
AcDbMlineStyle
  2
Standard
 70
     0
  3

 62
     0
 51
90.0
 52
90.0
 71
     2
 49
0.5
 62
   256
  6
BYLAYER
 49
-0.5
 62
   256
  6
BYLAYER
  0
ACDBDICTIONARYWDFLT
  5
1F
102
{ACAD_REACTORS
330
19
102
}
100
AcDbDictionary
281
     1
  3
Normal
350
1D
100
AcDbDictionaryWithDefault
340
1D
  0
ACDBPLACEHOLDER
  5
1D
102
{ACAD_REACTORS
330
1F
102
}
  0
LAYOUT
  5
20
102
{ACAD_REACTORS
330
1E
102
}
100
AcDbPlotSettings
  1

  2

  4

  6

 40
0.0
 41
0.0
 42
0.0
 43
0.0
 44
0.0
 45
0.0
 46
0.0
 47
0.0
 48
0.0
 49
0.0
140
0.0
141
0.0
142
1.0
143
1.0
 70
  1024
 72
     0
 73
     0
 74
     0
  7

 75
     0
147
1.0
148
0.0
149
0.0
100
AcDbLayout
  1
Model
 70
     0
 71
     0
 10
0.0
 20
0.0
 11
0.0
 21
0.0
 12
0.0
 22
0.0
 32
0.0
 14
0.0
 24
0.0
 34
0.0
 15
0.0
 25
0.0
 35
0.0
146
0.0
 13
0.0
 23
0.0
 33
0.0
 16
0.0
 26
0.0
 36
0.0
 17
0.0
 27
0.0
 37
0.0
 76
     0
330
A
331
0
345
0
346
0
  0
LAYOUT
  5
21
102
{ACAD_REACTORS
330
1E
102
}
100
AcDbPlotSettings
  1

  2

  4

  6

 40
0.0
 41
0.0
 42
0.0
 43
0.0
 44
0.0
 45
0.0
 46
0.0
 47
0.0
 48
0.0
 49
0.0
140
0.0
141
0.0
142
1.0
143
1.0
 70
     0
 72
     0
 73
     0
 74
     0
  7

 75
     0
147
1.0
148
0.0
149
0.0
100
AcDbLayout
  1
Layout1
 70
     0
 71
     0
 10
0.0
 20
0.0
 11
0.0
 21
0.0
 12
0.0
 22
0.0
 32
0.0
 14
0.0
 24
0.0
 34
0.0
 15
0.0
 25
0.0
 35
0.0
146
0.0
 13
0.0
 23
0.0
 33
0.0
 16
0.0
 26
0.0
 36
0.0
 17
0.0
 27
0.0
 37
0.0
 76
     0
330
B
331
0
345
0
346
0
  0
DICTIONARY
  5
1E
102
{ACAD_REACTORS
330
19
102
}
100
AcDbDictionary
280
     0
281
     1
  3
Layout1
350
21
  3
Model
350
20
  0
DICTIONARY
  5
22
102
{ACAD_REACTORS
330
19
102
}
100
AcDbDictionary
280
     0
281
     1
  0
WIPEOUTVARIABLES
  5
23
100
AcDbWipeoutVariables
 70
     1
  0
ENDSEC
  0
EOF
