ISO-10303-21;
HEADER;
FILE_DESCRIPTION (( 'STEP AP203' ),
    '1' );
FILE_NAME ('Web Model 45657.STEP',
    '2017-01-31T15:18:27',
    ( '' ),
    ( '' ),
    'SwSTEP 2.0',
    'SolidWorks 2016',
    '' );
FILE_SCHEMA (( 'CONFIG_CONTROL_DESIGN' ));
ENDSEC;

DATA;
#1 = CC_DESIGN_DATE_AND_TIME_ASSIGNMENT ( #171, #54, ( #128 ) ) ;
#2 = APPROVAL_PERSON_ORGANIZATION ( #37, #91, #31 ) ;
#3 = APPLICATION_CONTEXT ( 'configuration controlled 3d designs of mechanical parts and assemblies' ) ;
#4 = DATE_AND_TIME ( #162, #39 ) ;
#5 = CALENDAR_DATE ( 2017, 31, 1 ) ;
#6 = ORIENTED_EDGE ( 'NONE', *, *, #15, .T. ) ;
#7 = EDGE_CURVE ( 'NONE', #113, #63, #12, .T. ) ;
#8 = PLANE ( 'NONE',  #97 ) ;
#9 = DIRECTION ( 'NONE',  ( 0.0000000000000000000, 0.0000000000000000000, 1.000000000000000000 ) ) ;
#10 = PRODUCT_DEFINITION_FORMATION_WITH_SPECIFIED_SOURCE ( 'ANY', '', #155, .NOT_KNOWN. ) ;
#11 = PERSON_AND_ORGANIZATION ( #161, #173 ) ;
#12 = CIRCLE ( 'NONE', #172, 4.999999999999997300 ) ;
#13 = COORDINATED_UNIVERSAL_TIME_OFFSET ( 5, 0, .BEHIND. ) ;
#14 = ORIENTED_EDGE ( 'NONE', *, *, #149, .T. ) ;
#15 = EDGE_CURVE ( 'NONE', #56, #174, #153, .T. ) ;
#16 = APPROVAL ( #66, 'UNSPECIFIED' ) ;
#17 = CARTESIAN_POINT ( 'NONE',  ( 4.999999999999997300, 0.0000000000000000000, -2.000000000000000000 ) ) ;
#18 = LINE ( 'NONE', #112, #41 ) ;
#19 = EDGE_LOOP ( 'NONE', ( #170, #6 ) ) ;
#20 = APPROVAL_PERSON_ORGANIZATION ( #58, #16, #137 ) ;
#21 = LOCAL_TIME ( 10, 18, 27.00000000000000000, #127 ) ;
#22 = DIRECTION ( 'NONE',  ( 0.0000000000000000000, 0.0000000000000000000, 1.000000000000000000 ) ) ;
#23 = DESIGN_CONTEXT ( 'detailed design', #3, 'design' ) ;
#24 = EDGE_LOOP ( 'NONE', ( #82, #14, #98, #73 ) ) ;
#25 = COORDINATED_UNIVERSAL_TIME_OFFSET ( 5, 0, .BEHIND. ) ;
#26 = LOCAL_TIME ( 10, 18, 27.00000000000000000, #79 ) ;
#27 = CC_DESIGN_PERSON_AND_ORGANIZATION_ASSIGNMENT ( #175, #57, ( #10 ) ) ;
#28 =( NAMED_UNIT ( * ) PLANE_ANGLE_UNIT ( ) SI_UNIT ( $, .RADIAN. ) );
#29 = ORIENTED_EDGE ( 'NONE', *, *, #149, .F. ) ;
#30 = APPROVAL_DATE_TIME ( #118, #138 ) ;
#31 = APPROVAL_ROLE ( '' ) ;
#32 = CARTESIAN_POINT ( 'NONE',  ( 4.999999999999997300, 0.0000000000000000000, 0.0000000000000000000 ) ) ;
#33 = CYLINDRICAL_SURFACE ( 'NONE', #64, 4.999999999999997300 ) ;
#34 = CALENDAR_DATE ( 2017, 31, 1 ) ;
#35 = DIRECTION ( 'NONE',  ( 0.0000000000000000000, 0.0000000000000000000, 1.000000000000000000 ) ) ;
#36 = CC_DESIGN_APPROVAL ( #91, ( #132 ) ) ;
#37 = PERSON_AND_ORGANIZATION ( #161, #173 ) ;
#38 = CIRCLE ( 'NONE', #143, 4.999999999999997300 ) ;
#39 = LOCAL_TIME ( 10, 18, 27.00000000000000000, #52 ) ;
#40 = PLANE ( 'NONE',  #101 ) ;
#41 = VECTOR ( 'NONE', #78, 1000.000000000000000 ) ;
#42 = APPLICATION_PROTOCOL_DEFINITION ( 'international standard', 'config_control_design', 1994, #3 ) ;
#43 =( NAMED_UNIT ( * ) SI_UNIT ( $, .STERADIAN. ) SOLID_ANGLE_UNIT ( ) );
#44 = ADVANCED_FACE ( 'NONE', ( #89 ), #8, .T. ) ;
#45 = DIRECTION ( 'NONE',  ( 1.000000000000000000, 0.0000000000000000000, 0.0000000000000000000 ) ) ;
#46 = UNCERTAINTY_MEASURE_WITH_UNIT (LENGTH_MEASURE( 1.000000000000000100E-005 ), #86, 'distance_accuracy_value', 'NONE');
#47 = CC_DESIGN_SECURITY_CLASSIFICATION ( #132, ( #10 ) ) ;
#48 = CIRCLE ( 'NONE', #69, 4.999999999999997300 ) ;
#49 = DIRECTION ( 'NONE',  ( 1.000000000000000000, 0.0000000000000000000, 0.0000000000000000000 ) ) ;
#50 = DIRECTION ( 'NONE',  ( 0.0000000000000000000, 0.0000000000000000000, 1.000000000000000000 ) ) ;
#51 = DIRECTION ( 'NONE',  ( 0.0000000000000000000, 0.0000000000000000000, 1.000000000000000000 ) ) ;
#52 = COORDINATED_UNIVERSAL_TIME_OFFSET ( 5, 0, .BEHIND. ) ;
#53 = CC_DESIGN_APPROVAL ( #16, ( #10 ) ) ;
#54 = DATE_TIME_ROLE ( 'creation_date' ) ;
#55 = MANIFOLD_SOLID_BREP ( 'Extrude1', #145 ) ;
#56 = VERTEX_POINT ( 'NONE', #140 ) ;
#57 = PERSON_AND_ORGANIZATION_ROLE ( 'creator' ) ;
#58 = PERSON_AND_ORGANIZATION ( #161, #173 ) ;
#59 = CC_DESIGN_PERSON_AND_ORGANIZATION_ASSIGNMENT ( #11, #136, ( #132 ) ) ;
#60 = CARTESIAN_POINT ( 'NONE',  ( 0.0000000000000000000, 0.0000000000000000000, 0.0000000000000000000 ) ) ;
#61 = EDGE_LOOP ( 'NONE', ( #126, #117 ) ) ;
#62 = PRODUCT_RELATED_PRODUCT_CATEGORY ( 'detail', '', ( #155 ) ) ;
#63 = VERTEX_POINT ( 'NONE', #139 ) ;
#64 = AXIS2_PLACEMENT_3D ( 'NONE', #102, #80, #157 ) ;
#65 = CARTESIAN_POINT ( 'NONE',  ( 0.0000000000000000000, 0.0000000000000000000, -2.000000000000000000 ) ) ;
#66 = APPROVAL_STATUS ( 'not_yet_approved' ) ;
#67 = CARTESIAN_POINT ( 'NONE',  ( 0.0000000000000000000, 0.0000000000000000000, 0.0000000000000000000 ) ) ;
#68 = SECURITY_CLASSIFICATION_LEVEL ( 'unclassified' ) ;
#69 = AXIS2_PLACEMENT_3D ( 'NONE', #65, #164, #84 ) ;
#70 = DATE_AND_TIME ( #5, #26 ) ;
#71 = APPROVAL_DATE_TIME ( #81, #91 ) ;
#72 = FACE_OUTER_BOUND ( 'NONE', #61, .T. ) ;
#73 = ORIENTED_EDGE ( 'NONE', *, *, #158, .F. ) ;
#74 = CARTESIAN_POINT ( 'NONE',  ( 0.0000000000000000000, 0.0000000000000000000, -2.000000000000000000 ) ) ;
#75 = EDGE_CURVE ( 'NONE', #63, #113, #48, .T. ) ;
#76 = CC_DESIGN_PERSON_AND_ORGANIZATION_ASSIGNMENT ( #131, #108, ( #128 ) ) ;
#77 = CARTESIAN_POINT ( 'NONE',  ( 0.0000000000000000000, 0.0000000000000000000, -2.000000000000000000 ) ) ;
#78 = DIRECTION ( 'NONE',  ( 0.0000000000000000000, 0.0000000000000000000, 1.000000000000000000 ) ) ;
#79 = COORDINATED_UNIVERSAL_TIME_OFFSET ( 5, 0, .BEHIND. ) ;
#80 = DIRECTION ( 'NONE',  ( 0.0000000000000000000, 0.0000000000000000000, 1.000000000000000000 ) ) ;
#81 = DATE_AND_TIME ( #163, #21 ) ;
#82 = ORIENTED_EDGE ( 'NONE', *, *, #7, .T. ) ;
#83 = CC_DESIGN_DATE_AND_TIME_ASSIGNMENT ( #70, #93, ( #132 ) ) ;
#84 = DIRECTION ( 'NONE',  ( 1.000000000000000000, 0.0000000000000000000, 0.0000000000000000000 ) ) ;
#85 = DIRECTION ( 'NONE',  ( 1.000000000000000000, 0.0000000000000000000, 0.0000000000000000000 ) ) ;
#86 =( LENGTH_UNIT ( ) NAMED_UNIT ( * ) SI_UNIT ( .MILLI., .METRE. ) );
#87 = EDGE_CURVE ( 'NONE', #174, #56, #38, .T. ) ;
#88 = VECTOR ( 'NONE', #156, 1000.000000000000000 ) ;
#89 = FACE_OUTER_BOUND ( 'NONE', #19, .T. ) ;
#90 = ADVANCED_BREP_SHAPE_REPRESENTATION ( 'Web Model 45657', ( #55, #152 ), #116 ) ;
#91 = APPROVAL ( #150, 'UNSPECIFIED' ) ;
#92 = PERSON_AND_ORGANIZATION_ROLE ( 'design_owner' ) ;
#93 = DATE_TIME_ROLE ( 'classification_date' ) ;
#94 = ADVANCED_FACE ( 'NONE', ( #106 ), #33, .T. ) ;
#95 = ORIENTED_EDGE ( 'NONE', *, *, #158, .T. ) ;
#96 = LOCAL_TIME ( 10, 18, 27.00000000000000000, #13 ) ;
#97 = AXIS2_PLACEMENT_3D ( 'NONE', #103, #22, #169 ) ;
#98 = ORIENTED_EDGE ( 'NONE', *, *, #87, .F. ) ;
#99 = CARTESIAN_POINT ( 'NONE',  ( 0.0000000000000000000, 0.0000000000000000000, 0.0000000000000000000 ) ) ;
#100 = PERSON_AND_ORGANIZATION ( #161, #173 ) ;
#101 = AXIS2_PLACEMENT_3D ( 'NONE', #107, #35, #129 ) ;
#102 = CARTESIAN_POINT ( 'NONE',  ( 0.0000000000000000000, 0.0000000000000000000, -2.000000000000000000 ) ) ;
#103 = CARTESIAN_POINT ( 'NONE',  ( 0.0000000000000000000, 0.0000000000000000000, 0.0000000000000000000 ) ) ;
#104 = SHAPE_DEFINITION_REPRESENTATION ( #121, #90 ) ;
#105 = LINE ( 'NONE', #142, #88 ) ;
#106 = FACE_OUTER_BOUND ( 'NONE', #24, .T. ) ;
#107 = CARTESIAN_POINT ( 'NONE',  ( 0.0000000000000000000, 0.0000000000000000000, -2.000000000000000000 ) ) ;
#108 = PERSON_AND_ORGANIZATION_ROLE ( 'creator' ) ;
#109 = MECHANICAL_CONTEXT ( 'NONE', #148, 'mechanical' ) ;
#110 = ORIENTED_EDGE ( 'NONE', *, *, #15, .F. ) ;
#111 = APPLICATION_PROTOCOL_DEFINITION ( 'international standard', 'config_control_design', 1994, #148 ) ;
#112 = CARTESIAN_POINT ( 'NONE',  ( 4.999999999999997300, 0.0000000000000000000, -2.000000000000000000 ) ) ;
#113 = VERTEX_POINT ( 'NONE', #17 ) ;
#114 = AXIS2_PLACEMENT_3D ( 'NONE', #99, #51, #160 ) ;
#115 = LOCAL_TIME ( 10, 18, 27.00000000000000000, #25 ) ;
#116 =( GEOMETRIC_REPRESENTATION_CONTEXT ( 3 ) GLOBAL_UNCERTAINTY_ASSIGNED_CONTEXT ( ( #46 ) ) GLOBAL_UNIT_ASSIGNED_CONTEXT ( ( #86, #28, #43 ) ) REPRESENTATION_CONTEXT ( 'NONE', 'WORKASPACE' ) );
#117 = ORIENTED_EDGE ( 'NONE', *, *, #75, .F. ) ;
#118 = DATE_AND_TIME ( #34, #96 ) ;
#119 = CC_DESIGN_PERSON_AND_ORGANIZATION_ASSIGNMENT ( #134, #92, ( #155 ) ) ;
#120 = DIRECTION ( 'NONE',  ( 1.000000000000000000, 0.0000000000000000000, 0.0000000000000000000 ) ) ;
#121 = PRODUCT_DEFINITION_SHAPE ( 'NONE', 'NONE',  #128 ) ;
#122 = DIRECTION ( 'NONE',  ( 0.0000000000000000000, 0.0000000000000000000, 1.000000000000000000 ) ) ;
#123 = APPROVAL_PERSON_ORGANIZATION ( #166, #138, #133 ) ;
#124 = CC_DESIGN_PERSON_AND_ORGANIZATION_ASSIGNMENT ( #100, #147, ( #10 ) ) ;
#125 = CYLINDRICAL_SURFACE ( 'NONE', #159, 4.999999999999997300 ) ;
#126 = ORIENTED_EDGE ( 'NONE', *, *, #7, .F. ) ;
#127 = COORDINATED_UNIVERSAL_TIME_OFFSET ( 5, 0, .BEHIND. ) ;
#128 = PRODUCT_DEFINITION ( 'UNKNOWN', '', #10, #23 ) ;
#129 = DIRECTION ( 'NONE',  ( 1.000000000000000000, 0.0000000000000000000, -0.0000000000000000000 ) ) ;
#130 = EDGE_LOOP ( 'NONE', ( #29, #135, #95, #110 ) ) ;
#131 = PERSON_AND_ORGANIZATION ( #161, #173 ) ;
#132 = SECURITY_CLASSIFICATION ( '', '', #68 ) ;
#133 = APPROVAL_ROLE ( '' ) ;
#134 = PERSON_AND_ORGANIZATION ( #161, #173 ) ;
#135 = ORIENTED_EDGE ( 'NONE', *, *, #75, .T. ) ;
#136 = PERSON_AND_ORGANIZATION_ROLE ( 'classification_officer' ) ;
#137 = APPROVAL_ROLE ( '' ) ;
#138 = APPROVAL ( #165, 'UNSPECIFIED' ) ;
#139 = CARTESIAN_POINT ( 'NONE',  ( -4.999999999999997300, 6.123233995736763300E-016, -2.000000000000000000 ) ) ;
#140 = CARTESIAN_POINT ( 'NONE',  ( -4.999999999999997300, 6.123233995736763300E-016, 0.0000000000000000000 ) ) ;
#141 = APPROVAL_DATE_TIME ( #4, #16 ) ;
#142 = CARTESIAN_POINT ( 'NONE',  ( -4.999999999999997300, 6.123233995736763300E-016, -2.000000000000000000 ) ) ;
#143 = AXIS2_PLACEMENT_3D ( 'NONE', #60, #154, #85 ) ;
#144 = FACE_OUTER_BOUND ( 'NONE', #130, .T. ) ;
#145 = CLOSED_SHELL ( 'NONE', ( #94, #146, #167, #44 ) ) ;
#146 = ADVANCED_FACE ( 'NONE', ( #144 ), #125, .T. ) ;
#147 = PERSON_AND_ORGANIZATION_ROLE ( 'design_supplier' ) ;
#148 = APPLICATION_CONTEXT ( 'configuration controlled 3d designs of mechanical parts and assemblies' ) ;
#149 = EDGE_CURVE ( 'NONE', #63, #56, #105, .T. ) ;
#150 = APPROVAL_STATUS ( 'not_yet_approved' ) ;
#151 = CALENDAR_DATE ( 2017, 31, 1 ) ;
#152 = AXIS2_PLACEMENT_3D ( 'NONE', #67, #122, #45 ) ;
#153 = CIRCLE ( 'NONE', #114, 4.999999999999997300 ) ;
#154 = DIRECTION ( 'NONE',  ( 0.0000000000000000000, 0.0000000000000000000, 1.000000000000000000 ) ) ;
#155 = PRODUCT ( 'Web Model 45657', 'Web Model 45657', '', ( #109 ) ) ;
#156 = DIRECTION ( 'NONE',  ( 0.0000000000000000000, 0.0000000000000000000, 1.000000000000000000 ) ) ;
#157 = DIRECTION ( 'NONE',  ( 1.000000000000000000, 0.0000000000000000000, 0.0000000000000000000 ) ) ;
#158 = EDGE_CURVE ( 'NONE', #113, #174, #18, .T. ) ;
#159 = AXIS2_PLACEMENT_3D ( 'NONE', #74, #50, #120 ) ;
#160 = DIRECTION ( 'NONE',  ( 1.000000000000000000, 0.0000000000000000000, 0.0000000000000000000 ) ) ;
#161 = PERSON ( 'UNSPECIFIED', 'UNSPECIFIED', 'UNSPECIFIED', ('UNSPECIFIED'), ('UNSPECIFIED'), ('UNSPECIFIED') ) ;
#162 = CALENDAR_DATE ( 2017, 31, 1 ) ;
#163 = CALENDAR_DATE ( 2017, 31, 1 ) ;
#164 = DIRECTION ( 'NONE',  ( 0.0000000000000000000, 0.0000000000000000000, 1.000000000000000000 ) ) ;
#165 = APPROVAL_STATUS ( 'not_yet_approved' ) ;
#166 = PERSON_AND_ORGANIZATION ( #161, #173 ) ;
#167 = ADVANCED_FACE ( 'NONE', ( #72 ), #40, .F. ) ;
#168 = CC_DESIGN_APPROVAL ( #138, ( #128 ) ) ;
#169 = DIRECTION ( 'NONE',  ( 1.000000000000000000, 0.0000000000000000000, -0.0000000000000000000 ) ) ;
#170 = ORIENTED_EDGE ( 'NONE', *, *, #87, .T. ) ;
#171 = DATE_AND_TIME ( #151, #115 ) ;
#172 = AXIS2_PLACEMENT_3D ( 'NONE', #77, #9, #49 ) ;
#173 = ORGANIZATION ( 'UNSPECIFIED', 'UNSPECIFIED', '' ) ;
#174 = VERTEX_POINT ( 'NONE', #32 ) ;
#175 = PERSON_AND_ORGANIZATION ( #161, #173 ) ;
ENDSEC;
END-ISO-10303-21;
