ISO-10303-21;
HEADER;
FILE_DESCRIPTION (( 'STEP AP203' ),
    '1' );
FILE_NAME ('Web Model Ø5-75mm Indoor Hydrophobic Windows_36072.step',
    '2017-09-07T19:07:07',
    ( '' ),
    ( '' ),
    'SwSTEP 2.0',
    'SolidWorks 2016',
    '' );
FILE_SCHEMA (( 'CONFIG_CONTROL_DESIGN' ));
ENDSEC;

DATA;
#1 = ADVANCED_FACE ( 'NONE', ( #41 ), #50, .T. ) ;
#2 = APPROVAL_STATUS ( 'not_yet_approved' ) ;
#3 =( NAMED_UNIT ( * ) PLANE_ANGLE_UNIT ( ) SI_UNIT ( $, .RADIAN. ) );
#4 = DATE_AND_TIME ( #43, #25 ) ;
#5 = CC_DESIGN_DATE_AND_TIME_ASSIGNMENT ( #77, #83, ( #128 ) ) ;
#6 = DIRECTION ( 'NONE',  ( -0.0000000000000000000, -0.0000000000000000000, -1.000000000000000000 ) ) ;
#7 = CARTESIAN_POINT ( 'NONE',  ( 12.50000000000000000, 1.530808498934191500E-015, -0.5500000000000000400 ) ) ;
#8 = EDGE_CURVE ( 'NONE', #144, #84, #51, .T. ) ;
#9 = COORDINATED_UNIVERSAL_TIME_OFFSET ( 5, 0, .BEHIND. ) ;
#10 = EDGE_LOOP ( 'NONE', ( #105, #142, #151, #95 ) ) ;
#11 = EDGE_CURVE ( 'NONE', #84, #144, #12, .T. ) ;
#12 = CIRCLE ( 'NONE', #35, 12.50000000000000000 ) ;
#13 = VERTEX_POINT ( 'NONE', #38 ) ;
#14 = PRODUCT_DEFINITION_SHAPE ( 'NONE', 'NONE',  #128 ) ;
#15 = APPROVAL ( #2, 'UNSPECIFIED' ) ;
#16 = EDGE_CURVE ( 'NONE', #13, #109, #45, .T. ) ;
#17 = PERSON_AND_ORGANIZATION_ROLE ( 'creator' ) ;
#18 = SHAPE_DEFINITION_REPRESENTATION ( #14, #103 ) ;
#19 = PERSON_AND_ORGANIZATION_ROLE ( 'design_owner' ) ;
#20 = DIRECTION ( 'NONE',  ( 0.0000000000000000000, 0.0000000000000000000, 1.000000000000000000 ) ) ;
#21 = DIRECTION ( 'NONE',  ( 0.0000000000000000000, 0.0000000000000000000, 1.000000000000000000 ) ) ;
#22 = CALENDAR_DATE ( 2017, 7, 9 ) ;
#23 = DIRECTION ( 'NONE',  ( 1.000000000000000000, 0.0000000000000000000, 0.0000000000000000000 ) ) ;
#24 = CC_DESIGN_PERSON_AND_ORGANIZATION_ASSIGNMENT ( #40, #17, ( #91 ) ) ;
#25 = LOCAL_TIME ( 15, 7, 7.000000000000000000, #75 ) ;
#26 = AXIS2_PLACEMENT_3D ( 'NONE', #88, #129, #23 ) ;
#27 = PERSON_AND_ORGANIZATION ( #154, #115 ) ;
#28 = SECURITY_CLASSIFICATION_LEVEL ( 'unclassified' ) ;
#29 = APPLICATION_CONTEXT ( 'configuration controlled 3d designs of mechanical parts and assemblies' ) ;
#30 = DIRECTION ( 'NONE',  ( -1.000000000000000000, 0.0000000000000000000, 0.0000000000000000000 ) ) ;
#31 = CC_DESIGN_DATE_AND_TIME_ASSIGNMENT ( #175, #118, ( #131 ) ) ;
#32 = LOCAL_TIME ( 15, 7, 7.000000000000000000, #172 ) ;
#33 = DIRECTION ( 'NONE',  ( 0.0000000000000000000, 0.0000000000000000000, 1.000000000000000000 ) ) ;
#34 = CARTESIAN_POINT ( 'NONE',  ( 0.0000000000000000000, 0.0000000000000000000, 0.5500000000000000400 ) ) ;
#35 = AXIS2_PLACEMENT_3D ( 'NONE', #36, #147, #71 ) ;
#36 = CARTESIAN_POINT ( 'NONE',  ( 0.0000000000000000000, 0.0000000000000000000, 0.5500000000000000400 ) ) ;
#37 = COORDINATED_UNIVERSAL_TIME_OFFSET ( 5, 0, .BEHIND. ) ;
#38 = CARTESIAN_POINT ( 'NONE',  ( -12.50000000000000000, 0.0000000000000000000, -0.5500000000000000400 ) ) ;
#39 = CC_DESIGN_PERSON_AND_ORGANIZATION_ASSIGNMENT ( #81, #111, ( #91 ) ) ;
#40 = PERSON_AND_ORGANIZATION ( #154, #115 ) ;
#41 = FACE_OUTER_BOUND ( 'NONE', #79, .T. ) ;
#42 = AXIS2_PLACEMENT_3D ( 'NONE', #48, #145, #146 ) ;
#43 = CALENDAR_DATE ( 2017, 7, 9 ) ;
#44 = CC_DESIGN_PERSON_AND_ORGANIZATION_ASSIGNMENT ( #155, #19, ( #76 ) ) ;
#45 = CIRCLE ( 'NONE', #140, 12.50000000000000000 ) ;
#46 = PERSON_AND_ORGANIZATION_ROLE ( 'classification_officer' ) ;
#47 = CC_DESIGN_SECURITY_CLASSIFICATION ( #131, ( #91 ) ) ;
#48 = CARTESIAN_POINT ( 'NONE',  ( 0.0000000000000000000, 0.0000000000000000000, 0.0000000000000000000 ) ) ;
#49 = APPROVAL_STATUS ( 'not_yet_approved' ) ;
#50 = CYLINDRICAL_SURFACE ( 'NONE', #174, 12.50000000000000000 ) ;
#51 = CIRCLE ( 'NONE', #26, 12.50000000000000000 ) ;
#52 = APPROVAL_DATE_TIME ( #4, #152 ) ;
#53 = CC_DESIGN_PERSON_AND_ORGANIZATION_ASSIGNMENT ( #107, #160, ( #128 ) ) ;
#54 = LINE ( 'NONE', #124, #165 ) ;
#55 = CC_DESIGN_PERSON_AND_ORGANIZATION_ASSIGNMENT ( #100, #46, ( #131 ) ) ;
#56 = APPLICATION_PROTOCOL_DEFINITION ( 'international standard', 'config_control_design', 1994, #29 ) ;
#57 = DIRECTION ( 'NONE',  ( 1.000000000000000000, 0.0000000000000000000, -0.0000000000000000000 ) ) ;
#58 = FACE_OUTER_BOUND ( 'NONE', #10, .T. ) ;
#59 = PLANE ( 'NONE',  #69 ) ;
#60 = CC_DESIGN_APPROVAL ( #152, ( #131 ) ) ;
#61 = ORIENTED_EDGE ( 'NONE', *, *, #171, .T. ) ;
#62 = CALENDAR_DATE ( 2017, 7, 9 ) ;
#63 = ORIENTED_EDGE ( 'NONE', *, *, #170, .F. ) ;
#64 = DATE_AND_TIME ( #143, #141 ) ;
#65 = PERSON_AND_ORGANIZATION ( #154, #115 ) ;
#66 = FACE_OUTER_BOUND ( 'NONE', #89, .T. ) ;
#67 = DIRECTION ( 'NONE',  ( -0.0000000000000000000, -0.0000000000000000000, -1.000000000000000000 ) ) ;
#68 =( LENGTH_UNIT ( ) NAMED_UNIT ( * ) SI_UNIT ( .MILLI., .METRE. ) );
#69 = AXIS2_PLACEMENT_3D ( 'NONE', #102, #150, #73 ) ;
#70 = MECHANICAL_CONTEXT ( 'NONE', #29, 'mechanical' ) ;
#71 = DIRECTION ( 'NONE',  ( 1.000000000000000000, 0.0000000000000000000, 0.0000000000000000000 ) ) ;
#72 = CARTESIAN_POINT ( 'NONE',  ( 12.50000000000000000, 1.530808498934191500E-015, 0.5500000000000000400 ) ) ;
#73 = DIRECTION ( 'NONE',  ( 1.000000000000000000, 0.0000000000000000000, -0.0000000000000000000 ) ) ;
#74 = AXIS2_PLACEMENT_3D ( 'NONE', #85, #20, #136 ) ;
#75 = COORDINATED_UNIVERSAL_TIME_OFFSET ( 5, 0, .BEHIND. ) ;
#76 = PRODUCT ( 'Web Model Ø5-75mm Indoor Hydrophobic Windows_36072', 'Web Model Ø5-75mm Indoor Hydrophobic Windows_36072', '', ( #70 ) ) ;
#77 = DATE_AND_TIME ( #135, #134 ) ;
#78 = CIRCLE ( 'NONE', #74, 12.50000000000000000 ) ;
#79 = EDGE_LOOP ( 'NONE', ( #167, #173, #61, #63 ) ) ;
#80 = CC_DESIGN_APPROVAL ( #168, ( #128 ) ) ;
#81 = PERSON_AND_ORGANIZATION ( #154, #115 ) ;
#82 = CYLINDRICAL_SURFACE ( 'NONE', #156, 12.50000000000000000 ) ;
#83 = DATE_TIME_ROLE ( 'creation_date' ) ;
#84 = VERTEX_POINT ( 'NONE', #99 ) ;
#85 = CARTESIAN_POINT ( 'NONE',  ( 0.0000000000000000000, 0.0000000000000000000, -0.5500000000000000400 ) ) ;
#86 = CARTESIAN_POINT ( 'NONE',  ( 0.0000000000000000000, 0.0000000000000000000, -0.5500000000000000400 ) ) ;
#87 = CARTESIAN_POINT ( 'NONE',  ( 0.0000000000000000000, 0.0000000000000000000, 0.5500000000000000400 ) ) ;
#88 = CARTESIAN_POINT ( 'NONE',  ( 0.0000000000000000000, 0.0000000000000000000, 0.5500000000000000400 ) ) ;
#89 = EDGE_LOOP ( 'NONE', ( #119, #123 ) ) ;
#90 = APPROVAL_ROLE ( '' ) ;
#91 = PRODUCT_DEFINITION_FORMATION_WITH_SPECIFIED_SOURCE ( 'ANY', '', #76, .NOT_KNOWN. ) ;
#92 = DATE_AND_TIME ( #62, #149 ) ;
#93 = ORIENTED_EDGE ( 'NONE', *, *, #171, .F. ) ;
#94 = ADVANCED_FACE ( 'NONE', ( #58 ), #82, .T. ) ;
#95 = ORIENTED_EDGE ( 'NONE', *, *, #16, .T. ) ;
#96 =( GEOMETRIC_REPRESENTATION_CONTEXT ( 3 ) GLOBAL_UNCERTAINTY_ASSIGNED_CONTEXT ( ( #116 ) ) GLOBAL_UNIT_ASSIGNED_CONTEXT ( ( #68, #3, #97 ) ) REPRESENTATION_CONTEXT ( 'NONE', 'WORKASPACE' ) );
#97 =( NAMED_UNIT ( * ) SI_UNIT ( $, .STERADIAN. ) SOLID_ANGLE_UNIT ( ) );
#98 = APPROVAL_ROLE ( '' ) ;
#99 = CARTESIAN_POINT ( 'NONE',  ( 12.50000000000000000, 1.530808498934191500E-015, 0.5500000000000000400 ) ) ;
#100 = PERSON_AND_ORGANIZATION ( #154, #115 ) ;
#101 = CARTESIAN_POINT ( 'NONE',  ( -12.50000000000000000, 0.0000000000000000000, 0.5500000000000000400 ) ) ;
#102 = CARTESIAN_POINT ( 'NONE',  ( 0.0000000000000000000, 0.0000000000000000000, -0.5500000000000000400 ) ) ;
#103 = ADVANCED_BREP_SHAPE_REPRESENTATION ( 'Web Model +5-75mm Indoor Hydrophobic Windows_36072', ( #159, #42 ), #96 ) ;
#104 = APPROVAL_DATE_TIME ( #92, #168 ) ;
#105 = ORIENTED_EDGE ( 'NONE', *, *, #125, .F. ) ;
#106 = PRODUCT_RELATED_PRODUCT_CATEGORY ( 'detail', '', ( #76 ) ) ;
#107 = PERSON_AND_ORGANIZATION ( #154, #115 ) ;
#108 = EDGE_LOOP ( 'NONE', ( #130, #93 ) ) ;
#109 = VERTEX_POINT ( 'NONE', #7 ) ;
#110 = APPROVAL_ROLE ( '' ) ;
#111 = PERSON_AND_ORGANIZATION_ROLE ( 'design_supplier' ) ;
#112 = APPLICATION_CONTEXT ( 'configuration controlled 3d designs of mechanical parts and assemblies' ) ;
#113 = APPROVAL_PERSON_ORGANIZATION ( #153, #152, #90 ) ;
#114 = DIRECTION ( 'NONE',  ( -1.000000000000000000, 0.0000000000000000000, 0.0000000000000000000 ) ) ;
#115 = ORGANIZATION ( 'UNSPECIFIED', 'UNSPECIFIED', '' ) ;
#116 = UNCERTAINTY_MEASURE_WITH_UNIT (LENGTH_MEASURE( 1.000000000000000100E-005 ), #68, 'distance_accuracy_value', 'NONE');
#117 = DIRECTION ( 'NONE',  ( -0.0000000000000000000, -0.0000000000000000000, -1.000000000000000000 ) ) ;
#118 = DATE_TIME_ROLE ( 'classification_date' ) ;
#119 = ORIENTED_EDGE ( 'NONE', *, *, #8, .T. ) ;
#120 = APPROVAL_DATE_TIME ( #64, #15 ) ;
#121 = CLOSED_SHELL ( 'NONE', ( #1, #94, #122, #132 ) ) ;
#122 = ADVANCED_FACE ( 'NONE', ( #66 ), #162, .T. ) ;
#123 = ORIENTED_EDGE ( 'NONE', *, *, #11, .T. ) ;
#124 = CARTESIAN_POINT ( 'NONE',  ( -12.50000000000000000, 0.0000000000000000000, 0.5500000000000000400 ) ) ;
#125 = EDGE_CURVE ( 'NONE', #84, #109, #157, .T. ) ;
#126 = VECTOR ( 'NONE', #138, 1000.000000000000000 ) ;
#127 = APPLICATION_PROTOCOL_DEFINITION ( 'international standard', 'config_control_design', 1994, #112 ) ;
#128 = PRODUCT_DEFINITION ( 'UNKNOWN', '', #91, #158 ) ;
#129 = DIRECTION ( 'NONE',  ( 0.0000000000000000000, 0.0000000000000000000, 1.000000000000000000 ) ) ;
#130 = ORIENTED_EDGE ( 'NONE', *, *, #16, .F. ) ;
#131 = SECURITY_CLASSIFICATION ( '', '', #28 ) ;
#132 = ADVANCED_FACE ( 'NONE', ( #139 ), #59, .F. ) ;
#133 = CC_DESIGN_APPROVAL ( #15, ( #91 ) ) ;
#134 = LOCAL_TIME ( 15, 7, 7.000000000000000000, #169 ) ;
#135 = CALENDAR_DATE ( 2017, 7, 9 ) ;
#136 = DIRECTION ( 'NONE',  ( 1.000000000000000000, 0.0000000000000000000, 0.0000000000000000000 ) ) ;
#137 = CARTESIAN_POINT ( 'NONE',  ( 0.0000000000000000000, 0.0000000000000000000, 0.5500000000000000400 ) ) ;
#138 = DIRECTION ( 'NONE',  ( -0.0000000000000000000, -0.0000000000000000000, -1.000000000000000000 ) ) ;
#139 = FACE_OUTER_BOUND ( 'NONE', #108, .T. ) ;
#140 = AXIS2_PLACEMENT_3D ( 'NONE', #86, #21, #163 ) ;
#141 = LOCAL_TIME ( 15, 7, 7.000000000000000000, #9 ) ;
#142 = ORIENTED_EDGE ( 'NONE', *, *, #8, .F. ) ;
#143 = CALENDAR_DATE ( 2017, 7, 9 ) ;
#144 = VERTEX_POINT ( 'NONE', #101 ) ;
#145 = DIRECTION ( 'NONE',  ( 0.0000000000000000000, 0.0000000000000000000, 1.000000000000000000 ) ) ;
#146 = DIRECTION ( 'NONE',  ( 1.000000000000000000, 0.0000000000000000000, 0.0000000000000000000 ) ) ;
#147 = DIRECTION ( 'NONE',  ( 0.0000000000000000000, 0.0000000000000000000, 1.000000000000000000 ) ) ;
#148 = AXIS2_PLACEMENT_3D ( 'NONE', #87, #33, #57 ) ;
#149 = LOCAL_TIME ( 15, 7, 7.000000000000000000, #37 ) ;
#150 = DIRECTION ( 'NONE',  ( 0.0000000000000000000, 0.0000000000000000000, 1.000000000000000000 ) ) ;
#151 = ORIENTED_EDGE ( 'NONE', *, *, #170, .T. ) ;
#152 = APPROVAL ( #49, 'UNSPECIFIED' ) ;
#153 = PERSON_AND_ORGANIZATION ( #154, #115 ) ;
#154 = PERSON ( 'UNSPECIFIED', 'UNSPECIFIED', 'UNSPECIFIED', ('UNSPECIFIED'), ('UNSPECIFIED'), ('UNSPECIFIED') ) ;
#155 = PERSON_AND_ORGANIZATION ( #154, #115 ) ;
#156 = AXIS2_PLACEMENT_3D ( 'NONE', #34, #6, #114 ) ;
#157 = LINE ( 'NONE', #72, #126 ) ;
#158 = DESIGN_CONTEXT ( 'detailed design', #112, 'design' ) ;
#159 = MANIFOLD_SOLID_BREP ( 'Boss-Extrude1', #121 ) ;
#160 = PERSON_AND_ORGANIZATION_ROLE ( 'creator' ) ;
#161 = APPROVAL_STATUS ( 'not_yet_approved' ) ;
#162 = PLANE ( 'NONE',  #148 ) ;
#163 = DIRECTION ( 'NONE',  ( 1.000000000000000000, 0.0000000000000000000, 0.0000000000000000000 ) ) ;
#164 = APPROVAL_PERSON_ORGANIZATION ( #65, #168, #110 ) ;
#165 = VECTOR ( 'NONE', #67, 1000.000000000000000 ) ;
#166 = APPROVAL_PERSON_ORGANIZATION ( #27, #15, #98 ) ;
#167 = ORIENTED_EDGE ( 'NONE', *, *, #11, .F. ) ;
#168 = APPROVAL ( #161, 'UNSPECIFIED' ) ;
#169 = COORDINATED_UNIVERSAL_TIME_OFFSET ( 5, 0, .BEHIND. ) ;
#170 = EDGE_CURVE ( 'NONE', #144, #13, #54, .T. ) ;
#171 = EDGE_CURVE ( 'NONE', #109, #13, #78, .T. ) ;
#172 = COORDINATED_UNIVERSAL_TIME_OFFSET ( 5, 0, .BEHIND. ) ;
#173 = ORIENTED_EDGE ( 'NONE', *, *, #125, .T. ) ;
#174 = AXIS2_PLACEMENT_3D ( 'NONE', #137, #117, #30 ) ;
#175 = DATE_AND_TIME ( #22, #32 ) ;
ENDSEC;
END-ISO-10303-21;
