ISO-10303-21;
HEADER;
FILE_DESCRIPTION (( 'STEP AP203' ),
    '1' );
FILE_NAME ('Web Model 39394_39408.step',
    '2018-10-05T20:48:31',
    ( '' ),
    ( '' ),
    'SwSTEP 2.0',
    'SolidWorks 2016',
    '' );
FILE_SCHEMA (( 'CONFIG_CONTROL_DESIGN' ));
ENDSEC;

DATA;
#1 = APPROVAL_STATUS ( 'not_yet_approved' ) ;
#2 = APPROVAL_PERSON_ORGANIZATION ( #5, #71, #85 ) ;
#3 = CC_DESIGN_DATE_AND_TIME_ASSIGNMENT ( #45, #121, ( #66 ) ) ;
#4 = PERSON_AND_ORGANIZATION_ROLE ( 'classification_officer' ) ;
#5 = PERSON_AND_ORGANIZATION ( #16, #154 ) ;
#6 = ORIENTED_EDGE ( 'NONE', *, *, #15, .F. ) ;
#7 = ADVANCED_BREP_SHAPE_REPRESENTATION ( 'Web Model 39394_39408', ( #31, #118 ), #151 ) ;
#8 = AXIS2_PLACEMENT_3D ( 'NONE', #97, #100, #75 ) ;
#9 = DIRECTION ( 'NONE',  ( -1.000000000000000000, 0.0000000000000000000, 0.0000000000000000000 ) ) ;
#10 = CARTESIAN_POINT ( 'NONE',  ( 0.0000000000000000000, 0.0000000000000000000, 0.5000000000000000000 ) ) ;
#11 = ADVANCED_FACE ( 'NONE', ( #56 ), #156, .T. ) ;
#12 =( LENGTH_UNIT ( ) NAMED_UNIT ( * ) SI_UNIT ( .MILLI., .METRE. ) );
#13 = CC_DESIGN_PERSON_AND_ORGANIZATION_ASSIGNMENT ( #106, #65, ( #117 ) ) ;
#14 =( NAMED_UNIT ( * ) PLANE_ANGLE_UNIT ( ) SI_UNIT ( $, .RADIAN. ) );
#15 = EDGE_CURVE ( 'NONE', #34, #78, #150, .T. ) ;
#16 = PERSON ( 'UNSPECIFIED', 'UNSPECIFIED', 'UNSPECIFIED', ('UNSPECIFIED'), ('UNSPECIFIED'), ('UNSPECIFIED') ) ;
#17 = LOCAL_TIME ( 16, 48, 31.00000000000000000, #166 ) ;
#18 = CC_DESIGN_APPROVAL ( #71, ( #44 ) ) ;
#19 = APPROVAL_DATE_TIME ( #46, #160 ) ;
#20 = EDGE_LOOP ( 'NONE', ( #74, #132 ) ) ;
#21 = CC_DESIGN_PERSON_AND_ORGANIZATION_ASSIGNMENT ( #103, #36, ( #66 ) ) ;
#22 = UNCERTAINTY_MEASURE_WITH_UNIT (LENGTH_MEASURE( 1.000000000000000100E-005 ), #12, 'distance_accuracy_value', 'NONE');
#23 = CALENDAR_DATE ( 2018, 5, 10 ) ;
#24 = CARTESIAN_POINT ( 'NONE',  ( 0.0000000000000000000, 0.0000000000000000000, -0.5000000000000000000 ) ) ;
#25 = AXIS2_PLACEMENT_3D ( 'NONE', #41, #146, #111 ) ;
#26 = DIRECTION ( 'NONE',  ( 1.000000000000000000, 0.0000000000000000000, 0.0000000000000000000 ) ) ;
#27 = ORIENTED_EDGE ( 'NONE', *, *, #60, .F. ) ;
#28 = COORDINATED_UNIVERSAL_TIME_OFFSET ( 5, 0, .BEHIND. ) ;
#29 = COORDINATED_UNIVERSAL_TIME_OFFSET ( 5, 0, .BEHIND. ) ;
#30 = PRODUCT_DEFINITION_SHAPE ( 'NONE', 'NONE',  #66 ) ;
#31 = MANIFOLD_SOLID_BREP ( 'Boss-Extrude1', #119 ) ;
#32 = AXIS2_PLACEMENT_3D ( 'NONE', #10, #89, #98 ) ;
#33 = APPROVAL_PERSON_ORGANIZATION ( #69, #124, #137 ) ;
#34 = VERTEX_POINT ( 'NONE', #109 ) ;
#35 = APPROVAL_STATUS ( 'not_yet_approved' ) ;
#36 = PERSON_AND_ORGANIZATION_ROLE ( 'creator' ) ;
#37 = AXIS2_PLACEMENT_3D ( 'NONE', #130, #127, #129 ) ;
#38 = LOCAL_TIME ( 16, 48, 31.00000000000000000, #139 ) ;
#39 = DATE_AND_TIME ( #62, #38 ) ;
#40 = ADVANCED_FACE ( 'NONE', ( #149 ), #172, .T. ) ;
#41 = CARTESIAN_POINT ( 'NONE',  ( 0.0000000000000000000, 0.0000000000000000000, 0.5000000000000000000 ) ) ;
#42 = CARTESIAN_POINT ( 'NONE',  ( 12.69999999999999900, 1.555301434917138400E-015, 0.5000000000000000000 ) ) ;
#43 = APPLICATION_CONTEXT ( 'configuration controlled 3d designs of mechanical parts and assemblies' ) ;
#44 = PRODUCT_DEFINITION_FORMATION_WITH_SPECIFIED_SOURCE ( 'ANY', '', #117, .NOT_KNOWN. ) ;
#45 = DATE_AND_TIME ( #88, #102 ) ;
#46 = DATE_AND_TIME ( #23, #58 ) ;
#47 = ORIENTED_EDGE ( 'NONE', *, *, #15, .T. ) ;
#48 = CIRCLE ( 'NONE', #8, 12.69999999999999900 ) ;
#49 = DIRECTION ( 'NONE',  ( -0.0000000000000000000, -0.0000000000000000000, -1.000000000000000000 ) ) ;
#50 = CARTESIAN_POINT ( 'NONE',  ( 0.0000000000000000000, 0.0000000000000000000, 0.0000000000000000000 ) ) ;
#51 = DIRECTION ( 'NONE',  ( -1.000000000000000000, 0.0000000000000000000, 0.0000000000000000000 ) ) ;
#52 = DESIGN_CONTEXT ( 'detailed design', #161, 'design' ) ;
#53 = EDGE_CURVE ( 'NONE', #34, #155, #48, .T. ) ;
#54 = DIRECTION ( 'NONE',  ( 0.0000000000000000000, 0.0000000000000000000, 1.000000000000000000 ) ) ;
#55 = ORIENTED_EDGE ( 'NONE', *, *, #135, .F. ) ;
#56 = FACE_OUTER_BOUND ( 'NONE', #86, .T. ) ;
#57 = VECTOR ( 'NONE', #101, 1000.000000000000000 ) ;
#58 = LOCAL_TIME ( 16, 48, 31.00000000000000000, #29 ) ;
#59 = ORIENTED_EDGE ( 'NONE', *, *, #53, .T. ) ;
#60 = EDGE_CURVE ( 'NONE', #155, #34, #144, .T. ) ;
#61 = DIRECTION ( 'NONE',  ( -0.0000000000000000000, -0.0000000000000000000, -1.000000000000000000 ) ) ;
#62 = CALENDAR_DATE ( 2018, 5, 10 ) ;
#63 = CIRCLE ( 'NONE', #68, 12.69999999999999900 ) ;
#64 = CARTESIAN_POINT ( 'NONE',  ( 12.69999999999999900, 1.555301434917138400E-015, -0.5000000000000000000 ) ) ;
#65 = PERSON_AND_ORGANIZATION_ROLE ( 'design_owner' ) ;
#66 = PRODUCT_DEFINITION ( 'UNKNOWN', '', #44, #52 ) ;
#67 = ORIENTED_EDGE ( 'NONE', *, *, #53, .F. ) ;
#68 = AXIS2_PLACEMENT_3D ( 'NONE', #24, #54, #125 ) ;
#69 = PERSON_AND_ORGANIZATION ( #16, #154 ) ;
#70 = APPROVAL_STATUS ( 'not_yet_approved' ) ;
#71 = APPROVAL ( #70, 'UNSPECIFIED' ) ;
#72 = COORDINATED_UNIVERSAL_TIME_OFFSET ( 5, 0, .BEHIND. ) ;
#73 = CC_DESIGN_PERSON_AND_ORGANIZATION_ASSIGNMENT ( #82, #165, ( #44 ) ) ;
#74 = ORIENTED_EDGE ( 'NONE', *, *, #94, .F. ) ;
#75 = DIRECTION ( 'NONE',  ( 1.000000000000000000, 0.0000000000000000000, 0.0000000000000000000 ) ) ;
#76 = AXIS2_PLACEMENT_3D ( 'NONE', #171, #158, #77 ) ;
#77 = DIRECTION ( 'NONE',  ( 1.000000000000000000, 0.0000000000000000000, -0.0000000000000000000 ) ) ;
#78 = VERTEX_POINT ( 'NONE', #64 ) ;
#79 =( NAMED_UNIT ( * ) SI_UNIT ( $, .STERADIAN. ) SOLID_ANGLE_UNIT ( ) );
#80 = APPLICATION_PROTOCOL_DEFINITION ( 'international standard', 'config_control_design', 1994, #161 ) ;
#81 = EDGE_LOOP ( 'NONE', ( #114, #59 ) ) ;
#82 = PERSON_AND_ORGANIZATION ( #16, #154 ) ;
#83 = PRODUCT_RELATED_PRODUCT_CATEGORY ( 'detail', '', ( #117 ) ) ;
#84 = SECURITY_CLASSIFICATION ( '', '', #136 ) ;
#85 = APPROVAL_ROLE ( '' ) ;
#86 = EDGE_LOOP ( 'NONE', ( #6, #27, #115, #95 ) ) ;
#87 = CALENDAR_DATE ( 2018, 5, 10 ) ;
#88 = CALENDAR_DATE ( 2018, 5, 10 ) ;
#89 = DIRECTION ( 'NONE',  ( 0.0000000000000000000, 0.0000000000000000000, 1.000000000000000000 ) ) ;
#90 = DIRECTION ( 'NONE',  ( 0.0000000000000000000, 0.0000000000000000000, 1.000000000000000000 ) ) ;
#91 = CARTESIAN_POINT ( 'NONE',  ( -12.69999999999999900, 0.0000000000000000000, -0.5000000000000000000 ) ) ;
#92 = CARTESIAN_POINT ( 'NONE',  ( -12.69999999999999900, 0.0000000000000000000, 0.5000000000000000000 ) ) ;
#93 = CC_DESIGN_PERSON_AND_ORGANIZATION_ASSIGNMENT ( #120, #105, ( #44 ) ) ;
#94 = EDGE_CURVE ( 'NONE', #170, #78, #110, .T. ) ;
#95 = ORIENTED_EDGE ( 'NONE', *, *, #94, .T. ) ;
#96 = CC_DESIGN_PERSON_AND_ORGANIZATION_ASSIGNMENT ( #140, #4, ( #84 ) ) ;
#97 = CARTESIAN_POINT ( 'NONE',  ( 0.0000000000000000000, 0.0000000000000000000, 0.5000000000000000000 ) ) ;
#98 = DIRECTION ( 'NONE',  ( 1.000000000000000000, 0.0000000000000000000, -0.0000000000000000000 ) ) ;
#99 = ADVANCED_FACE ( 'NONE', ( #174 ), #131, .T. ) ;
#100 = DIRECTION ( 'NONE',  ( 0.0000000000000000000, 0.0000000000000000000, 1.000000000000000000 ) ) ;
#101 = DIRECTION ( 'NONE',  ( -0.0000000000000000000, -0.0000000000000000000, -1.000000000000000000 ) ) ;
#102 = LOCAL_TIME ( 16, 48, 31.00000000000000000, #72 ) ;
#103 = PERSON_AND_ORGANIZATION ( #16, #154 ) ;
#104 = FACE_OUTER_BOUND ( 'NONE', #20, .T. ) ;
#105 = PERSON_AND_ORGANIZATION_ROLE ( 'creator' ) ;
#106 = PERSON_AND_ORGANIZATION ( #16, #154 ) ;
#107 = DATE_TIME_ROLE ( 'classification_date' ) ;
#108 = LINE ( 'NONE', #175, #57 ) ;
#109 = CARTESIAN_POINT ( 'NONE',  ( 12.69999999999999900, 1.555301434917138400E-015, 0.5000000000000000000 ) ) ;
#110 = CIRCLE ( 'NONE', #37, 12.69999999999999900 ) ;
#111 = DIRECTION ( 'NONE',  ( 1.000000000000000000, 0.0000000000000000000, 0.0000000000000000000 ) ) ;
#112 = EDGE_CURVE ( 'NONE', #78, #170, #63, .T. ) ;
#113 = DIRECTION ( 'NONE',  ( -0.0000000000000000000, -0.0000000000000000000, -1.000000000000000000 ) ) ;
#114 = ORIENTED_EDGE ( 'NONE', *, *, #60, .T. ) ;
#115 = ORIENTED_EDGE ( 'NONE', *, *, #135, .T. ) ;
#116 = CC_DESIGN_DATE_AND_TIME_ASSIGNMENT ( #134, #107, ( #84 ) ) ;
#117 = PRODUCT ( 'Web Model 39394_39408', 'Web Model 39394_39408', '', ( #148 ) ) ;
#118 = AXIS2_PLACEMENT_3D ( 'NONE', #50, #90, #26 ) ;
#119 = CLOSED_SHELL ( 'NONE', ( #99, #11, #40, #126 ) ) ;
#120 = PERSON_AND_ORGANIZATION ( #16, #154 ) ;
#121 = DATE_TIME_ROLE ( 'creation_date' ) ;
#122 = SHAPE_DEFINITION_REPRESENTATION ( #30, #7 ) ;
#123 = CC_DESIGN_SECURITY_CLASSIFICATION ( #84, ( #44 ) ) ;
#124 = APPROVAL ( #35, 'UNSPECIFIED' ) ;
#125 = DIRECTION ( 'NONE',  ( 1.000000000000000000, 0.0000000000000000000, 0.0000000000000000000 ) ) ;
#126 = ADVANCED_FACE ( 'NONE', ( #104 ), #145, .F. ) ;
#127 = DIRECTION ( 'NONE',  ( 0.0000000000000000000, 0.0000000000000000000, 1.000000000000000000 ) ) ;
#128 = CALENDAR_DATE ( 2018, 5, 10 ) ;
#129 = DIRECTION ( 'NONE',  ( 1.000000000000000000, 0.0000000000000000000, 0.0000000000000000000 ) ) ;
#130 = CARTESIAN_POINT ( 'NONE',  ( 0.0000000000000000000, 0.0000000000000000000, -0.5000000000000000000 ) ) ;
#131 = CYLINDRICAL_SURFACE ( 'NONE', #152, 12.69999999999999900 ) ;
#132 = ORIENTED_EDGE ( 'NONE', *, *, #112, .F. ) ;
#133 = APPLICATION_PROTOCOL_DEFINITION ( 'international standard', 'config_control_design', 1994, #43 ) ;
#134 = DATE_AND_TIME ( #128, #141 ) ;
#135 = EDGE_CURVE ( 'NONE', #155, #170, #108, .T. ) ;
#136 = SECURITY_CLASSIFICATION_LEVEL ( 'unclassified' ) ;
#137 = APPROVAL_ROLE ( '' ) ;
#138 = DATE_AND_TIME ( #87, #17 ) ;
#139 = COORDINATED_UNIVERSAL_TIME_OFFSET ( 5, 0, .BEHIND. ) ;
#140 = PERSON_AND_ORGANIZATION ( #16, #154 ) ;
#141 = LOCAL_TIME ( 16, 48, 31.00000000000000000, #28 ) ;
#142 = AXIS2_PLACEMENT_3D ( 'NONE', #173, #61, #9 ) ;
#143 = APPROVAL_PERSON_ORGANIZATION ( #163, #160, #164 ) ;
#144 = CIRCLE ( 'NONE', #25, 12.69999999999999900 ) ;
#145 = PLANE ( 'NONE',  #76 ) ;
#146 = DIRECTION ( 'NONE',  ( 0.0000000000000000000, 0.0000000000000000000, 1.000000000000000000 ) ) ;
#147 = APPROVAL_DATE_TIME ( #39, #71 ) ;
#148 = MECHANICAL_CONTEXT ( 'NONE', #43, 'mechanical' ) ;
#149 = FACE_OUTER_BOUND ( 'NONE', #81, .T. ) ;
#150 = LINE ( 'NONE', #42, #162 ) ;
#151 =( GEOMETRIC_REPRESENTATION_CONTEXT ( 3 ) GLOBAL_UNCERTAINTY_ASSIGNED_CONTEXT ( ( #22 ) ) GLOBAL_UNIT_ASSIGNED_CONTEXT ( ( #12, #14, #79 ) ) REPRESENTATION_CONTEXT ( 'NONE', 'WORKASPACE' ) );
#152 = AXIS2_PLACEMENT_3D ( 'NONE', #159, #113, #51 ) ;
#153 = ORIENTED_EDGE ( 'NONE', *, *, #112, .T. ) ;
#154 = ORGANIZATION ( 'UNSPECIFIED', 'UNSPECIFIED', '' ) ;
#155 = VERTEX_POINT ( 'NONE', #92 ) ;
#156 = CYLINDRICAL_SURFACE ( 'NONE', #142, 12.69999999999999900 ) ;
#157 = EDGE_LOOP ( 'NONE', ( #67, #47, #153, #55 ) ) ;
#158 = DIRECTION ( 'NONE',  ( 0.0000000000000000000, 0.0000000000000000000, 1.000000000000000000 ) ) ;
#159 = CARTESIAN_POINT ( 'NONE',  ( 0.0000000000000000000, 0.0000000000000000000, 0.5000000000000000000 ) ) ;
#160 = APPROVAL ( #1, 'UNSPECIFIED' ) ;
#161 = APPLICATION_CONTEXT ( 'configuration controlled 3d designs of mechanical parts and assemblies' ) ;
#162 = VECTOR ( 'NONE', #49, 1000.000000000000000 ) ;
#163 = PERSON_AND_ORGANIZATION ( #16, #154 ) ;
#164 = APPROVAL_ROLE ( '' ) ;
#165 = PERSON_AND_ORGANIZATION_ROLE ( 'design_supplier' ) ;
#166 = COORDINATED_UNIVERSAL_TIME_OFFSET ( 5, 0, .BEHIND. ) ;
#167 = CC_DESIGN_APPROVAL ( #124, ( #84 ) ) ;
#168 = CC_DESIGN_APPROVAL ( #160, ( #66 ) ) ;
#169 = APPROVAL_DATE_TIME ( #138, #124 ) ;
#170 = VERTEX_POINT ( 'NONE', #91 ) ;
#171 = CARTESIAN_POINT ( 'NONE',  ( 0.0000000000000000000, 0.0000000000000000000, -0.5000000000000000000 ) ) ;
#172 = PLANE ( 'NONE',  #32 ) ;
#173 = CARTESIAN_POINT ( 'NONE',  ( 0.0000000000000000000, 0.0000000000000000000, 0.5000000000000000000 ) ) ;
#174 = FACE_OUTER_BOUND ( 'NONE', #157, .T. ) ;
#175 = CARTESIAN_POINT ( 'NONE',  ( -12.69999999999999900, 0.0000000000000000000, 0.5000000000000000000 ) ) ;
ENDSEC;
END-ISO-10303-21;
