ISO-10303-21;
HEADER;
FILE_DESCRIPTION (( 'STEP AP214' ),
    '1' );
FILE_NAME ('3435-E0W.STEP',
    '2009-12-21T16:59:11',
    ( ' ' ),
    ( ' ' ),
    'SwSTEP 2.0',
    'SolidWorks 2009',
    '' );
FILE_SCHEMA (( 'AUTOMOTIVE_DESIGN' ));
ENDSEC;

DATA;
#1 = CLOSED_SHELL ( 'NONE', ( #38, #14, #18, #28, #22 ) ) ;
#2 = ORIENTED_EDGE ( 'NONE', *, *, #16, .F. ) ;
#3 = ORIENTED_EDGE ( 'NONE', *, *, #32, .F. ) ;
#4 = VERTEX_POINT ( 'NONE', #49 ) ;
#5 = ORIENTED_EDGE ( 'NONE', *, *, #6, .F. ) ;
#6 = EDGE_CURVE ( 'NONE', #13, #4, #59, .T. ) ;
#7 = ORIENTED_EDGE ( 'NONE', *, *, #46, .F. ) ;
#8 = ORIENTED_EDGE ( 'NONE', *, *, #27, .F. ) ;
#9 = ORIENTED_EDGE ( 'NONE', *, *, #21, .T. ) ;
#10 = EDGE_LOOP ( 'NONE', ( #3, #35, #30, #36 ) ) ;
#11 = EDGE_CURVE ( 'NONE', #44, #13, #54, .T. ) ;
#12 = ORIENTED_EDGE ( 'NONE', *, *, #11, .F. ) ;
#13 = VERTEX_POINT ( 'NONE', #71 ) ;
#14 = ADVANCED_FACE ( 'NONE', ( #88 ), #61, .F. ) ;
#15 = VERTEX_POINT ( 'NONE', #107 ) ;
#16 = EDGE_CURVE ( 'NONE', #15, #13, #99, .T. ) ;
#17 = ORIENTED_EDGE ( 'NONE', *, *, #32, .T. ) ;
#18 = ADVANCED_FACE ( 'NONE', ( #100 ), #105, .F. ) ;
#19 = ORIENTED_EDGE ( 'NONE', *, *, #34, .F. ) ;
#20 = EDGE_LOOP ( 'NONE', ( #19, #17, #29, #26 ) ) ;
#21 = EDGE_CURVE ( 'NONE', #50, #44, #126, .T. ) ;
#22 = ADVANCED_FACE ( 'NONE', ( #127 ), #238, .T. ) ;
#23 = EDGE_LOOP ( 'NONE', ( #7, #9, #39, #2, #8 ) ) ;
#24 = EDGE_LOOP ( 'NONE', ( #33, #25 ) ) ;
#25 = ORIENTED_EDGE ( 'NONE', *, *, #21, .F. ) ;
#26 = ORIENTED_EDGE ( 'NONE', *, *, #27, .T. ) ;
#27 = EDGE_CURVE ( 'NONE', #47, #15, #246, .T. ) ;
#28 = ADVANCED_FACE ( 'NONE', ( #245 ), #255, .F. ) ;
#29 = ORIENTED_EDGE ( 'NONE', *, *, #43, .T. ) ;
#30 = ORIENTED_EDGE ( 'NONE', *, *, #16, .T. ) ;
#31 = VERTEX_POINT ( 'NONE', #254 ) ;
#32 = EDGE_CURVE ( 'NONE', #31, #4, #231, .T. ) ;
#33 = ORIENTED_EDGE ( 'NONE', *, *, #48, .F. ) ;
#34 = EDGE_CURVE ( 'NONE', #31, #15, #225, .T. ) ;
#35 = ORIENTED_EDGE ( 'NONE', *, *, #34, .T. ) ;
#36 = ORIENTED_EDGE ( 'NONE', *, *, #6, .T. ) ;
#37 = MANIFOLD_SOLID_BREP ( 'NONE', #1 ) ;
#38 = ADVANCED_FACE ( 'NONE', ( #131 ), #166, .T. ) ;
#39 = ORIENTED_EDGE ( 'NONE', *, *, #11, .T. ) ;
#40 = ORIENTED_EDGE ( 'NONE', *, *, #48, .T. ) ;
#41 = EDGE_LOOP ( 'NONE', ( #40, #45, #42, #5, #12 ) ) ;
#42 = ORIENTED_EDGE ( 'NONE', *, *, #43, .F. ) ;
#43 = EDGE_CURVE ( 'NONE', #4, #47, #164, .T. ) ;
#44 = VERTEX_POINT ( 'NONE', #165 ) ;
#45 = ORIENTED_EDGE ( 'NONE', *, *, #46, .T. ) ;
#46 = EDGE_CURVE ( 'NONE', #50, #47, #172, .T. ) ;
#47 = VERTEX_POINT ( 'NONE', #146 ) ;
#48 = EDGE_CURVE ( 'NONE', #44, #50, #158, .T. ) ;
#49 = CARTESIAN_POINT ( 'NONE',  ( 0.0000000000000000000, 12.69999999999999200, 2.824831916252802600 ) ) ;
#50 = VERTEX_POINT ( 'NONE', #150 ) ;
#51 = VECTOR ( 'NONE', #52, 1000.000000000000000 ) ;
#52 = DIRECTION ( 'NONE',  ( -0.0000000000000000000, -0.0000000000000000000, 1.000000000000000000 ) ) ;
#53 = CARTESIAN_POINT ( 'NONE',  ( 12.69999999999999900, 0.0000000000000000000, 7.942321354176521600 ) ) ;
#54 = LINE ( 'NONE', #53, #51 ) ;
#55 = DIRECTION ( 'NONE',  ( 1.000000000000000000, 0.0000000000000000000, 0.0000000000000000000 ) ) ;
#56 = DIRECTION ( 'NONE',  ( -0.0000000000000000000, -0.0000000000000000000, 1.000000000000000000 ) ) ;
#57 = CARTESIAN_POINT ( 'NONE',  ( 0.0000000000000000000, 0.0000000000000000000, 2.824831916252802600 ) ) ;
#58 = AXIS2_PLACEMENT_3D ( 'NONE', #57, #56, #55 ) ;
#59 = CIRCLE ( 'NONE', #58, 12.69999999999999900 ) ;
#60 = CARTESIAN_POINT ( 'NONE',  ( 0.0000000000000000000, 0.0000000000000000000, 2.824831916252802600 ) ) ;
#61 = SPHERICAL_SURFACE ( 'NONE', #62, 38.59000000000000300 ) ;
#62 = AXIS2_PLACEMENT_3D ( 'NONE', #90, #93, #92 ) ;
#63 = FILL_AREA_STYLE ('',( #64 ) ) ;
#64 = FILL_AREA_STYLE_COLOUR ( '', #65 ) ;
#65 = COLOUR_RGB ( '',0.9568627450980391500, 0.9490196078431372100, 0.9607843137254902200 ) ;
#66 = PRESENTATION_STYLE_ASSIGNMENT (( #67 ) ) ;
#67 = SURFACE_STYLE_USAGE ( .BOTH. , #68 ) ;
#68 = SURFACE_SIDE_STYLE ('',( #69 ) ) ;
#69 = SURFACE_STYLE_FILL_AREA ( #63 ) ;
#70 = FILL_AREA_STYLE ('',( #84 ) ) ;
#71 = CARTESIAN_POINT ( 'NONE',  ( 12.69999999999999900, 0.0000000000000000000, 2.824831916252802600 ) ) ;
#72 = DIRECTION ( 'NONE',  ( 1.000000000000000000, 0.0000000000000000000, 0.0000000000000000000 ) ) ;
#73 = DIRECTION ( 'NONE',  ( -0.0000000000000000000, -0.0000000000000000000, 1.000000000000000000 ) ) ;
#74 = AXIS2_PLACEMENT_3D ( 'NONE', #60, #73, #72 ) ;
#75 =( LENGTH_UNIT ( ) NAMED_UNIT ( * ) SI_UNIT ( .MILLI., .METRE. ) );
#76 = UNCERTAINTY_MEASURE_WITH_UNIT (LENGTH_MEASURE( 1.000000000000000100E-005 ), #75, 'distance_accuracy_value', 'NONE');
#77 =( NAMED_UNIT ( * ) SI_UNIT ( $, .STERADIAN. ) SOLID_ANGLE_UNIT ( ) );
#78 = MECHANICAL_DESIGN_GEOMETRIC_PRESENTATION_REPRESENTATION (  '', ( #80 ), #106 ) ;
#79 = PRESENTATION_LAYER_ASSIGNMENT (  '', '', ( #80 ) ) ;
#80 = STYLED_ITEM ( 'NONE', ( #66 ), #18 ) ;
#81 =( GEOMETRIC_REPRESENTATION_CONTEXT ( 3 ) GLOBAL_UNCERTAINTY_ASSIGNED_CONTEXT ( ( #128 ) ) GLOBAL_UNIT_ASSIGNED_CONTEXT ( ( #86, #91, #89 ) ) REPRESENTATION_CONTEXT ( 'NONE', 'WORKASPACE' ) );
#82 = COLOUR_RGB ( '',0.9568627450980391500, 0.9490196078431372100, 0.9607843137254902200 ) ;
#83 = SURFACE_STYLE_USAGE ( .BOTH. , #87 ) ;
#84 = FILL_AREA_STYLE_COLOUR ( '', #82 ) ;
#85 = MECHANICAL_DESIGN_GEOMETRIC_PRESENTATION_REPRESENTATION (  '', ( #97 ), #81 ) ;
#86 =( LENGTH_UNIT ( ) NAMED_UNIT ( * ) SI_UNIT ( .MILLI., .METRE. ) );
#87 = SURFACE_SIDE_STYLE ('',( #94 ) ) ;
#88 = FACE_OUTER_BOUND ( 'NONE', #10, .T. ) ;
#89 =( NAMED_UNIT ( * ) SI_UNIT ( $, .STERADIAN. ) SOLID_ANGLE_UNIT ( ) );
#90 = CARTESIAN_POINT ( 'NONE',  ( 0.0000000000000000000, 0.0000000000000000000, 39.26516808374720600 ) ) ;
#91 =( NAMED_UNIT ( * ) PLANE_ANGLE_UNIT ( ) SI_UNIT ( $, .RADIAN. ) );
#92 = DIRECTION ( 'NONE',  ( 0.0000000000000000000, 1.000000000000000000, 0.0000000000000000000 ) ) ;
#93 = DIRECTION ( 'NONE',  ( -1.000000000000000000, 0.0000000000000000000, 0.0000000000000000000 ) ) ;
#94 = SURFACE_STYLE_FILL_AREA ( #70 ) ;
#95 =( NAMED_UNIT ( * ) PLANE_ANGLE_UNIT ( ) SI_UNIT ( $, .RADIAN. ) );
#96 = PRESENTATION_STYLE_ASSIGNMENT (( #83 ) ) ;
#97 = STYLED_ITEM ( 'NONE', ( #96 ), #14 ) ;
#98 = PRESENTATION_LAYER_ASSIGNMENT (  '', '', ( #97 ) ) ;
#99 = CIRCLE ( 'NONE', #74, 12.69999999999999900 ) ;
#100 = FACE_OUTER_BOUND ( 'NONE', #20, .T. ) ;
#101 = DIRECTION ( 'NONE',  ( 0.0000000000000000000, 1.000000000000000000, 0.0000000000000000000 ) ) ;
#102 = DIRECTION ( 'NONE',  ( -1.000000000000000000, 0.0000000000000000000, 0.0000000000000000000 ) ) ;
#103 = CARTESIAN_POINT ( 'NONE',  ( 0.0000000000000000000, 0.0000000000000000000, 39.26516808374720600 ) ) ;
#104 = AXIS2_PLACEMENT_3D ( 'NONE', #103, #102, #101 ) ;
#105 = SPHERICAL_SURFACE ( 'NONE', #104, 38.59000000000000300 ) ;
#106 =( GEOMETRIC_REPRESENTATION_CONTEXT ( 3 ) GLOBAL_UNCERTAINTY_ASSIGNED_CONTEXT ( ( #76 ) ) GLOBAL_UNIT_ASSIGNED_CONTEXT ( ( #75, #95, #77 ) ) REPRESENTATION_CONTEXT ( 'NONE', 'WORKASPACE' ) );
#107 = CARTESIAN_POINT ( 'NONE',  ( -1.555250069354418100E-015, -12.69999999999999200, 2.824831916252802600 ) ) ;
#108 = UNCERTAINTY_MEASURE_WITH_UNIT (LENGTH_MEASURE( 1.000000000000000100E-005 ), #111, 'distance_accuracy_value', 'NONE');
#109 =( NAMED_UNIT ( * ) SI_UNIT ( $, .STERADIAN. ) SOLID_ANGLE_UNIT ( ) );
#110 =( NAMED_UNIT ( * ) PLANE_ANGLE_UNIT ( ) SI_UNIT ( $, .RADIAN. ) );
#111 =( LENGTH_UNIT ( ) NAMED_UNIT ( * ) SI_UNIT ( .MILLI., .METRE. ) );
#112 = MECHANICAL_DESIGN_GEOMETRIC_PRESENTATION_REPRESENTATION (  '', ( #114 ), #261 ) ;
#113 = PRESENTATION_LAYER_ASSIGNMENT (  '', '', ( #114 ) ) ;
#114 = STYLED_ITEM ( 'NONE', ( #115 ), #22 ) ;
#115 = PRESENTATION_STYLE_ASSIGNMENT (( #116 ) ) ;
#116 = SURFACE_STYLE_USAGE ( .BOTH. , #117 ) ;
#117 = SURFACE_SIDE_STYLE ('',( #118 ) ) ;
#118 = SURFACE_STYLE_FILL_AREA ( #119 ) ;
#119 = FILL_AREA_STYLE ('',( #120 ) ) ;
#120 = FILL_AREA_STYLE_COLOUR ( '', #121 ) ;
#121 = COLOUR_RGB ( '',0.9568627450980391500, 0.9490196078431372100, 0.9607843137254902200 ) ;
#122 = DIRECTION ( 'NONE',  ( 1.000000000000000000, 0.0000000000000000000, 0.0000000000000000000 ) ) ;
#123 = DIRECTION ( 'NONE',  ( -0.0000000000000000000, -0.0000000000000000000, 1.000000000000000000 ) ) ;
#124 = CARTESIAN_POINT ( 'NONE',  ( 0.0000000000000000000, 0.0000000000000000000, -2.824831916252802600 ) ) ;
#125 = AXIS2_PLACEMENT_3D ( 'NONE', #124, #123, #122 ) ;
#126 = CIRCLE ( 'NONE', #125, 12.69999999999999900 ) ;
#127 = FACE_OUTER_BOUND ( 'NONE', #23, .T. ) ;
#128 = UNCERTAINTY_MEASURE_WITH_UNIT (LENGTH_MEASURE( 1.000000000000000100E-005 ), #86, 'distance_accuracy_value', 'NONE');
#129 = UNCERTAINTY_MEASURE_WITH_UNIT (LENGTH_MEASURE( 1.000000000000000100E-005 ), #212, 'distance_accuracy_value', 'NONE');
#130 =( NAMED_UNIT ( * ) SI_UNIT ( $, .STERADIAN. ) SOLID_ANGLE_UNIT ( ) );
#131 = FACE_OUTER_BOUND ( 'NONE', #41, .T. ) ;
#132 =( GEOMETRIC_REPRESENTATION_CONTEXT ( 3 ) GLOBAL_UNCERTAINTY_ASSIGNED_CONTEXT ( ( #129 ) ) GLOBAL_UNIT_ASSIGNED_CONTEXT ( ( #212, #211, #130 ) ) REPRESENTATION_CONTEXT ( 'NONE', 'WORKASPACE' ) );
#133 = SURFACE_STYLE_FILL_AREA ( #137 ) ;
#134 = PRESENTATION_STYLE_ASSIGNMENT (( #135 ) ) ;
#135 = SURFACE_STYLE_USAGE ( .BOTH. , #136 ) ;
#136 = SURFACE_SIDE_STYLE ('',( #133 ) ) ;
#137 = FILL_AREA_STYLE ('',( #139 ) ) ;
#138 = COLOUR_RGB ( '',0.9568627450980391500, 0.9490196078431372100, 0.9607843137254902200 ) ;
#139 = FILL_AREA_STYLE_COLOUR ( '', #138 ) ;
#140 = STYLED_ITEM ( 'NONE', ( #134 ), #38 ) ;
#141 =( LENGTH_UNIT ( ) NAMED_UNIT ( * ) SI_UNIT ( .MILLI., .METRE. ) );
#142 = DIRECTION ( 'NONE',  ( 1.000000000000000000, 0.0000000000000000000, 0.0000000000000000000 ) ) ;
#143 = DIRECTION ( 'NONE',  ( -0.0000000000000000000, -0.0000000000000000000, 1.000000000000000000 ) ) ;
#144 = CARTESIAN_POINT ( 'NONE',  ( 0.0000000000000000000, 0.0000000000000000000, 2.824831916252802600 ) ) ;
#145 = AXIS2_PLACEMENT_3D ( 'NONE', #144, #143, #142 ) ;
#146 = CARTESIAN_POINT ( 'NONE',  ( -12.69999999999999900, 1.555250069354419100E-015, 2.824831916252802600 ) ) ;
#147 = DIRECTION ( 'NONE',  ( -0.0000000000000000000, -0.0000000000000000000, 1.000000000000000000 ) ) ;
#148 = VECTOR ( 'NONE', #147, 1000.000000000000000 ) ;
#149 = CARTESIAN_POINT ( 'NONE',  ( 0.0000000000000000000, 0.0000000000000000000, -2.824831916252802600 ) ) ;
#150 = CARTESIAN_POINT ( 'NONE',  ( -12.69999999999999900, 1.555250069354419100E-015, -2.824831916252802600 ) ) ;
#151 = DIRECTION ( 'NONE',  ( 1.000000000000000000, 0.0000000000000000000, 0.0000000000000000000 ) ) ;
#152 =( NAMED_UNIT ( * ) PLANE_ANGLE_UNIT ( ) SI_UNIT ( $, .RADIAN. ) );
#153 =( NAMED_UNIT ( * ) SI_UNIT ( $, .STERADIAN. ) SOLID_ANGLE_UNIT ( ) );
#154 =( GEOMETRIC_REPRESENTATION_CONTEXT ( 3 ) GLOBAL_UNCERTAINTY_ASSIGNED_CONTEXT ( ( #162 ) ) GLOBAL_UNIT_ASSIGNED_CONTEXT ( ( #141, #152, #153 ) ) REPRESENTATION_CONTEXT ( 'NONE', 'WORKASPACE' ) );
#155 = DIRECTION ( 'NONE',  ( 1.000000000000000000, 0.0000000000000000000, 0.0000000000000000000 ) ) ;
#156 = DIRECTION ( 'NONE',  ( -0.0000000000000000000, -0.0000000000000000000, 1.000000000000000000 ) ) ;
#157 = AXIS2_PLACEMENT_3D ( 'NONE', #149, #156, #155 ) ;
#158 = CIRCLE ( 'NONE', #157, 12.69999999999999900 ) ;
#159 = DIRECTION ( 'NONE',  ( -0.0000000000000000000, -0.0000000000000000000, 1.000000000000000000 ) ) ;
#160 = CARTESIAN_POINT ( 'NONE',  ( 0.0000000000000000000, 0.0000000000000000000, 7.942321354176521600 ) ) ;
#161 = AXIS2_PLACEMENT_3D ( 'NONE', #160, #159, #151 ) ;
#162 = UNCERTAINTY_MEASURE_WITH_UNIT (LENGTH_MEASURE( 1.000000000000000100E-005 ), #141, 'distance_accuracy_value', 'NONE');
#163 = PRESENTATION_LAYER_ASSIGNMENT (  '', '', ( #140 ) ) ;
#164 = CIRCLE ( 'NONE', #145, 12.69999999999999900 ) ;
#165 = CARTESIAN_POINT ( 'NONE',  ( 12.69999999999999900, 0.0000000000000000000, -2.824831916252802600 ) ) ;
#166 = CYLINDRICAL_SURFACE ( 'NONE', #161, 12.69999999999999900 ) ;
#167 =( LENGTH_UNIT ( ) NAMED_UNIT ( * ) SI_UNIT ( .MILLI., .METRE. ) );
#168 =( NAMED_UNIT ( * ) SI_UNIT ( $, .STERADIAN. ) SOLID_ANGLE_UNIT ( ) );
#169 = MECHANICAL_DESIGN_GEOMETRIC_PRESENTATION_REPRESENTATION (  '', ( #140 ), #154 ) ;
#170 =( NAMED_UNIT ( * ) PLANE_ANGLE_UNIT ( ) SI_UNIT ( $, .RADIAN. ) );
#171 = CARTESIAN_POINT ( 'NONE',  ( -12.69999999999999900, 1.555250069354419100E-015, 7.942321354176521600 ) ) ;
#172 = LINE ( 'NONE', #171, #148 ) ;
#173 = DIRECTION ( 'NONE',  ( 1.000000000000000000, 0.0000000000000000000, 0.0000000000000000000 ) ) ;
#174 = DIRECTION ( 'NONE',  ( 0.0000000000000000000, 0.0000000000000000000, 1.000000000000000000 ) ) ;
#175 = ADVANCED_BREP_SHAPE_REPRESENTATION ( '3435-E0W', ( #37, #203 ), #190 ) ;
#176 = PRODUCT_RELATED_PRODUCT_CATEGORY ( 'part', '', ( #185 ) ) ;
#177 = PRODUCT_DEFINITION_FORMATION_WITH_SPECIFIED_SOURCE ( 'ANY', '', #185, .NOT_KNOWN. ) ;
#178 = PRODUCT_DEFINITION ( 'UNKNOWN', '', #177, #179 ) ;
#179 = PRODUCT_DEFINITION_CONTEXT ( 'detailed design', #184, 'design' ) ;
#180 = MECHANICAL_DESIGN_GEOMETRIC_PRESENTATION_REPRESENTATION (  '', ( #182 ), #189 ) ;
#181 = PRESENTATION_LAYER_ASSIGNMENT (  '', '', ( #182 ) ) ;
#182 = STYLED_ITEM ( 'NONE', ( #192 ), #175 ) ;
#183 = APPLICATION_PROTOCOL_DEFINITION ( 'draft international standard', 'automotive_design', 1998, #184 ) ;
#184 = APPLICATION_CONTEXT ( 'automotive_design' ) ;
#185 = PRODUCT ( '3435-E0W', '3435-E0W', '', ( #186 ) ) ;
#186 = PRODUCT_CONTEXT ( 'NONE', #204, 'mechanical' ) ;
#187 = APPLICATION_PROTOCOL_DEFINITION ( 'draft international standard', 'automotive_design', 1998, #204 ) ;
#188 = CARTESIAN_POINT ( 'NONE',  ( 0.0000000000000000000, 0.0000000000000000000, 0.0000000000000000000 ) ) ;
#189 =( GEOMETRIC_REPRESENTATION_CONTEXT ( 3 ) GLOBAL_UNCERTAINTY_ASSIGNED_CONTEXT ( ( #197 ) ) GLOBAL_UNIT_ASSIGNED_CONTEXT ( ( #191, #200, #198 ) ) REPRESENTATION_CONTEXT ( 'NONE', 'WORKASPACE' ) );
#190 =( GEOMETRIC_REPRESENTATION_CONTEXT ( 3 ) GLOBAL_UNCERTAINTY_ASSIGNED_CONTEXT ( ( #199 ) ) GLOBAL_UNIT_ASSIGNED_CONTEXT ( ( #167, #170, #168 ) ) REPRESENTATION_CONTEXT ( 'NONE', 'WORKASPACE' ) );
#191 =( LENGTH_UNIT ( ) NAMED_UNIT ( * ) SI_UNIT ( .MILLI., .METRE. ) );
#192 = PRESENTATION_STYLE_ASSIGNMENT (( #193 ) ) ;
#193 = SURFACE_STYLE_USAGE ( .BOTH. , #194 ) ;
#194 = SURFACE_SIDE_STYLE ('',( #195 ) ) ;
#195 = SURFACE_STYLE_FILL_AREA ( #196 ) ;
#196 = FILL_AREA_STYLE ('',( #201 ) ) ;
#197 = UNCERTAINTY_MEASURE_WITH_UNIT (LENGTH_MEASURE( 1.000000000000000100E-005 ), #191, 'distance_accuracy_value', 'NONE');
#198 =( NAMED_UNIT ( * ) SI_UNIT ( $, .STERADIAN. ) SOLID_ANGLE_UNIT ( ) );
#199 = UNCERTAINTY_MEASURE_WITH_UNIT (LENGTH_MEASURE( 1.000000000000000100E-005 ), #167, 'distance_accuracy_value', 'NONE');
#200 =( NAMED_UNIT ( * ) PLANE_ANGLE_UNIT ( ) SI_UNIT ( $, .RADIAN. ) );
#201 = FILL_AREA_STYLE_COLOUR ( '', #202 ) ;
#202 = COLOUR_RGB ( '',0.7960784313725489700, 0.8235294117647058400, 0.9372549019607843100 ) ;
#203 = AXIS2_PLACEMENT_3D ( 'NONE', #188, #174, #173 ) ;
#204 = APPLICATION_CONTEXT ( 'automotive_design' ) ;
#205 = PRODUCT_DEFINITION_SHAPE ( 'NONE', 'NONE',  #178 ) ;
#206 = SHAPE_DEFINITION_REPRESENTATION ( #205, #175 ) ;
#207 =( LENGTH_UNIT ( ) NAMED_UNIT ( * ) SI_UNIT ( .MILLI., .METRE. ) );
#208 = MECHANICAL_DESIGN_GEOMETRIC_PRESENTATION_REPRESENTATION (  '', ( #248 ), #256 ) ;
#209 = DIRECTION ( 'NONE',  ( 1.000000000000000000, 0.0000000000000000000, 0.0000000000000000000 ) ) ;
#210 = DIRECTION ( 'NONE',  ( -0.0000000000000000000, -0.0000000000000000000, 1.000000000000000000 ) ) ;
#211 =( NAMED_UNIT ( * ) PLANE_ANGLE_UNIT ( ) SI_UNIT ( $, .RADIAN. ) );
#212 =( LENGTH_UNIT ( ) NAMED_UNIT ( * ) SI_UNIT ( .MILLI., .METRE. ) );
#213 = MECHANICAL_DESIGN_GEOMETRIC_PRESENTATION_REPRESENTATION (  '', ( #215 ), #132 ) ;
#214 = PRESENTATION_LAYER_ASSIGNMENT (  '', '', ( #215 ) ) ;
#215 = STYLED_ITEM ( 'NONE', ( #216 ), #37 ) ;
#216 = PRESENTATION_STYLE_ASSIGNMENT (( #217 ) ) ;
#217 = SURFACE_STYLE_USAGE ( .BOTH. , #218 ) ;
#218 = SURFACE_SIDE_STYLE ('',( #219 ) ) ;
#219 = SURFACE_STYLE_FILL_AREA ( #220 ) ;
#220 = FILL_AREA_STYLE ('',( #226 ) ) ;
#221 = COLOUR_RGB ( '',0.7960784313725489700, 0.8235294117647058400, 0.9372549019607843100 ) ;
#222 = DIRECTION ( 'NONE',  ( -1.224606353822377300E-016, -1.000000000000000000, 0.0000000000000000000 ) ) ;
#223 = DIRECTION ( 'NONE',  ( -1.000000000000000000, 1.224606353822377300E-016, 0.0000000000000000000 ) ) ;
#224 = AXIS2_PLACEMENT_3D ( 'NONE', #232, #223, #222 ) ;
#225 = CIRCLE ( 'NONE', #224, 38.59000000000000300 ) ;
#226 = FILL_AREA_STYLE_COLOUR ( '', #221 ) ;
#227 = DIRECTION ( 'NONE',  ( 0.0000000000000000000, 0.0000000000000000000, -1.000000000000000000 ) ) ;
#228 = DIRECTION ( 'NONE',  ( 1.000000000000000000, 0.0000000000000000000, 0.0000000000000000000 ) ) ;
#229 = CARTESIAN_POINT ( 'NONE',  ( 0.0000000000000000000, 0.0000000000000000000, 39.26516808374720600 ) ) ;
#230 = AXIS2_PLACEMENT_3D ( 'NONE', #229, #228, #227 ) ;
#231 = CIRCLE ( 'NONE', #230, 38.59000000000000300 ) ;
#232 = CARTESIAN_POINT ( 'NONE',  ( 0.0000000000000000000, 0.0000000000000000000, 39.26516808374720600 ) ) ;
#233 = DIRECTION ( 'NONE',  ( -0.0000000000000000000, -0.0000000000000000000, 1.000000000000000000 ) ) ;
#234 = CARTESIAN_POINT ( 'NONE',  ( 0.0000000000000000000, 0.0000000000000000000, 2.824831916252802600 ) ) ;
#235 = SURFACE_STYLE_USAGE ( .BOTH. , #236 ) ;
#236 = SURFACE_SIDE_STYLE ('',( #237 ) ) ;
#237 = SURFACE_STYLE_FILL_AREA ( #239 ) ;
#238 = CYLINDRICAL_SURFACE ( 'NONE', #259, 12.69999999999999900 ) ;
#239 = FILL_AREA_STYLE ('',( #243 ) ) ;
#240 = DIRECTION ( 'NONE',  ( 1.000000000000000000, 0.0000000000000000000, 0.0000000000000000000 ) ) ;
#241 =( NAMED_UNIT ( * ) PLANE_ANGLE_UNIT ( ) SI_UNIT ( $, .RADIAN. ) );
#242 = CARTESIAN_POINT ( 'NONE',  ( 0.0000000000000000000, 0.0000000000000000000, 7.942321354176521600 ) ) ;
#243 = FILL_AREA_STYLE_COLOUR ( '', #244 ) ;
#244 = COLOUR_RGB ( '',0.9568627450980391500, 0.9490196078431372100, 0.9607843137254902200 ) ;
#245 = FACE_OUTER_BOUND ( 'NONE', #24, .T. ) ;
#246 = CIRCLE ( 'NONE', #260, 12.69999999999999900 ) ;
#247 = PRESENTATION_LAYER_ASSIGNMENT (  '', '', ( #248 ) ) ;
#248 = STYLED_ITEM ( 'NONE', ( #249 ), #28 ) ;
#249 = PRESENTATION_STYLE_ASSIGNMENT (( #235 ) ) ;
#250 = DIRECTION ( 'NONE',  ( 1.000000000000000000, 0.0000000000000000000, 0.0000000000000000000 ) ) ;
#251 = DIRECTION ( 'NONE',  ( 0.0000000000000000000, -0.0000000000000000000, 1.000000000000000000 ) ) ;
#252 = CARTESIAN_POINT ( 'NONE',  ( 0.0000000000000000000, 6.429395695523603200E-016, -2.824831916252802600 ) ) ;
#253 = AXIS2_PLACEMENT_3D ( 'NONE', #252, #251, #250 ) ;
#254 = CARTESIAN_POINT ( 'NONE',  ( 0.0000000000000000000, 2.362877959700277300E-015, 0.6751680837472005000 ) ) ;
#255 = PLANE ( 'NONE',  #253 ) ;
#256 =( GEOMETRIC_REPRESENTATION_CONTEXT ( 3 ) GLOBAL_UNCERTAINTY_ASSIGNED_CONTEXT ( ( #257 ) ) GLOBAL_UNIT_ASSIGNED_CONTEXT ( ( #207, #241, #258 ) ) REPRESENTATION_CONTEXT ( 'NONE', 'WORKASPACE' ) );
#257 = UNCERTAINTY_MEASURE_WITH_UNIT (LENGTH_MEASURE( 1.000000000000000100E-005 ), #207, 'distance_accuracy_value', 'NONE');
#258 =( NAMED_UNIT ( * ) SI_UNIT ( $, .STERADIAN. ) SOLID_ANGLE_UNIT ( ) );
#259 = AXIS2_PLACEMENT_3D ( 'NONE', #242, #210, #209 ) ;
#260 = AXIS2_PLACEMENT_3D ( 'NONE', #234, #233, #240 ) ;
#261 =( GEOMETRIC_REPRESENTATION_CONTEXT ( 3 ) GLOBAL_UNCERTAINTY_ASSIGNED_CONTEXT ( ( #108 ) ) GLOBAL_UNIT_ASSIGNED_CONTEXT ( ( #111, #110, #109 ) ) REPRESENTATION_CONTEXT ( 'NONE', 'WORKASPACE' ) );
ENDSEC;
END-ISO-10303-21;
