ISO-10303-21;
HEADER;
FILE_DESCRIPTION (( 'STEP AP203' ),
    '1' );
FILE_NAME ('Web Model 49158_49158.step',
    '2017-04-19T16:51:20',
    ( '' ),
    ( '' ),
    'SwSTEP 2.0',
    'SolidWorks 2016',
    '' );
FILE_SCHEMA (( 'CONFIG_CONTROL_DESIGN' ));
ENDSEC;

DATA;
#1 = LOCAL_TIME ( 12, 51, 20.00000000000000000, #99 ) ;
#2 = ADVANCED_FACE ( 'NONE', ( #127 ), #28, .F. ) ;
#3 = ORIENTED_EDGE ( 'NONE', *, *, #22, .T. ) ;
#4 = VERTEX_POINT ( 'NONE', #104 ) ;
#5 = CARTESIAN_POINT ( 'NONE',  ( -12.49999999999999500, -12.50000000000000400, -0.8000000000000000400 ) ) ;
#6 = ORIENTED_EDGE ( 'NONE', *, *, #148, .F. ) ;
#7 = DIRECTION ( 'NONE',  ( -2.775557561562891400E-016, 1.000000000000000000, 0.0000000000000000000 ) ) ;
#8 = VECTOR ( 'NONE', #187, 1000.000000000000000 ) ;
#9 = DIRECTION ( 'NONE',  ( 0.0000000000000000000, 0.0000000000000000000, -1.000000000000000000 ) ) ;
#10 = FACE_OUTER_BOUND ( 'NONE', #18, .T. ) ;
#11 = ORIENTED_EDGE ( 'NONE', *, *, #161, .T. ) ;
#12 = EDGE_CURVE ( 'NONE', #105, #158, #204, .T. ) ;
#13 = DIRECTION ( 'NONE',  ( 0.0000000000000000000, 0.0000000000000000000, -1.000000000000000000 ) ) ;
#14 = DIRECTION ( 'NONE',  ( 1.387778780781445700E-016, -1.000000000000000000, 0.0000000000000000000 ) ) ;
#15 =( NAMED_UNIT ( * ) SI_UNIT ( $, .STERADIAN. ) SOLID_ANGLE_UNIT ( ) );
#16 = APPROVAL_STATUS ( 'not_yet_approved' ) ;
#17 = PERSON_AND_ORGANIZATION ( #110, #65 ) ;
#18 = EDGE_LOOP ( 'NONE', ( #177, #102, #167, #41 ) ) ;
#19 = COORDINATED_UNIVERSAL_TIME_OFFSET ( 5, 0, .BEHIND. ) ;
#20 = SECURITY_CLASSIFICATION ( '', '', #74 ) ;
#21 = ADVANCED_FACE ( 'NONE', ( #220 ), #85, .T. ) ;
#22 = EDGE_CURVE ( 'NONE', #158, #76, #29, .T. ) ;
#23 = ORIENTED_EDGE ( 'NONE', *, *, #90, .T. ) ;
#24 = VECTOR ( 'NONE', #189, 1000.000000000000000 ) ;
#25 = DESIGN_CONTEXT ( 'detailed design', #141, 'design' ) ;
#26 = CARTESIAN_POINT ( 'NONE',  ( 12.50000000000000200, -12.50000000000000000, 0.8000000000000000400 ) ) ;
#27 = CC_DESIGN_PERSON_AND_ORGANIZATION_ASSIGNMENT ( #121, #117, ( #58 ) ) ;
#28 = PLANE ( 'NONE',  #80 ) ;
#29 = LINE ( 'NONE', #130, #209 ) ;
#30 = ORIENTED_EDGE ( 'NONE', *, *, #233, .T. ) ;
#31 = LINE ( 'NONE', #230, #106 ) ;
#32 = VECTOR ( 'NONE', #51, 1000.000000000000000 ) ;
#33 = DIRECTION ( 'NONE',  ( 2.775557561562891400E-016, -1.000000000000000000, 0.0000000000000000000 ) ) ;
#34 = DIRECTION ( 'NONE',  ( -1.000000000000000000, -1.387778780781445700E-016, 0.0000000000000000000 ) ) ;
#35 = CC_DESIGN_PERSON_AND_ORGANIZATION_ASSIGNMENT ( #206, #92, ( #131 ) ) ;
#36 = PERSON_AND_ORGANIZATION ( #110, #65 ) ;
#37 = DIRECTION ( 'NONE',  ( 1.000000000000000000, 0.0000000000000000000, 0.0000000000000000000 ) ) ;
#38 = DIRECTION ( 'NONE',  ( -1.000000000000000000, 0.0000000000000000000, -0.0000000000000000000 ) ) ;
#39 = APPROVAL_PERSON_ORGANIZATION ( #142, #89, #212 ) ;
#40 = LINE ( 'NONE', #111, #8 ) ;
#41 = ORIENTED_EDGE ( 'NONE', *, *, #71, .T. ) ;
#42 = PERSON_AND_ORGANIZATION ( #110, #65 ) ;
#43 = ADVANCED_FACE ( 'NONE', ( #165 ), #186, .F. ) ;
#44 = AXIS2_PLACEMENT_3D ( 'NONE', #107, #67, #7 ) ;
#45 = ORIENTED_EDGE ( 'NONE', *, *, #173, .F. ) ;
#46 = SHAPE_DEFINITION_REPRESENTATION ( #227, #47 ) ;
#47 = ADVANCED_BREP_SHAPE_REPRESENTATION ( 'Web Model 49158_49158', ( #197, #70 ), #123 ) ;
#48 = ORIENTED_EDGE ( 'NONE', *, *, #63, .T. ) ;
#49 = VECTOR ( 'NONE', #33, 1000.000000000000000 ) ;
#50 = CARTESIAN_POINT ( 'NONE',  ( 12.49999999999999800, 12.50000000000000000, 0.8000000000000000400 ) ) ;
#51 = DIRECTION ( 'NONE',  ( -0.0000000000000000000, -0.0000000000000000000, -1.000000000000000000 ) ) ;
#52 = DATE_AND_TIME ( #155, #231 ) ;
#53 = CARTESIAN_POINT ( 'NONE',  ( 12.50000000000000200, -12.50000000000000000, -0.8000000000000000400 ) ) ;
#54 = AXIS2_PLACEMENT_3D ( 'NONE', #95, #216, #176 ) ;
#55 = APPLICATION_PROTOCOL_DEFINITION ( 'international standard', 'config_control_design', 1994, #141 ) ;
#56 = APPROVAL_DATE_TIME ( #162, #89 ) ;
#57 = DIRECTION ( 'NONE',  ( -1.387778780781445700E-016, 1.000000000000000000, -0.0000000000000000000 ) ) ;
#58 = PRODUCT_DEFINITION ( 'UNKNOWN', '', #131, #25 ) ;
#59 = DATE_AND_TIME ( #164, #1 ) ;
#60 = CC_DESIGN_PERSON_AND_ORGANIZATION_ASSIGNMENT ( #118, #93, ( #131 ) ) ;
#61 = PRODUCT_RELATED_PRODUCT_CATEGORY ( 'detail', '', ( #91 ) ) ;
#62 = ORIENTED_EDGE ( 'NONE', *, *, #146, .F. ) ;
#63 = EDGE_CURVE ( 'NONE', #158, #4, #135, .T. ) ;
#64 = ORIENTED_EDGE ( 'NONE', *, *, #173, .T. ) ;
#65 = ORGANIZATION ( 'UNSPECIFIED', 'UNSPECIFIED', '' ) ;
#66 = VECTOR ( 'NONE', #169, 1000.000000000000000 ) ;
#67 = DIRECTION ( 'NONE',  ( 1.000000000000000000, 2.775557561562891400E-016, -0.0000000000000000000 ) ) ;
#68 = VERTEX_POINT ( 'NONE', #5 ) ;
#69 = AXIS2_PLACEMENT_3D ( 'NONE', #200, #14, #136 ) ;
#70 = AXIS2_PLACEMENT_3D ( 'NONE', #218, #160, #37 ) ;
#71 = EDGE_CURVE ( 'NONE', #76, #124, #75, .T. ) ;
#72 = APPROVAL_ROLE ( '' ) ;
#73 = CARTESIAN_POINT ( 'NONE',  ( 0.0000000000000000000, 0.0000000000000000000, 0.8000000000000000400 ) ) ;
#74 = SECURITY_CLASSIFICATION_LEVEL ( 'unclassified' ) ;
#75 = LINE ( 'NONE', #172, #32 ) ;
#76 = VERTEX_POINT ( 'NONE', #50 ) ;
#77 = DIRECTION ( 'NONE',  ( 1.000000000000000000, 1.387778780781445900E-016, -0.0000000000000000000 ) ) ;
#78 = CARTESIAN_POINT ( 'NONE',  ( 12.50000000000000200, -12.50000000000000000, 0.8000000000000000400 ) ) ;
#79 = LOCAL_TIME ( 12, 51, 20.00000000000000000, #179 ) ;
#80 = AXIS2_PLACEMENT_3D ( 'NONE', #26, #126, #211 ) ;
#81 = CALENDAR_DATE ( 2017, 19, 4 ) ;
#82 = VECTOR ( 'NONE', #226, 1000.000000000000000 ) ;
#83 = EDGE_LOOP ( 'NONE', ( #30, #182, #147, #48 ) ) ;
#84 = LINE ( 'NONE', #193, #184 ) ;
#85 = PLANE ( 'NONE',  #140 ) ;
#86 = ORIENTED_EDGE ( 'NONE', *, *, #63, .F. ) ;
#87 = LINE ( 'NONE', #53, #149 ) ;
#88 = CARTESIAN_POINT ( 'NONE',  ( 12.50000000000000200, -12.50000000000000000, 0.8000000000000000400 ) ) ;
#89 = APPROVAL ( #139, 'UNSPECIFIED' ) ;
#90 = EDGE_CURVE ( 'NONE', #105, #68, #40, .T. ) ;
#91 = PRODUCT ( 'Web Model 49158_49158', 'Web Model 49158_49158', '', ( #217 ) ) ;
#92 = PERSON_AND_ORGANIZATION_ROLE ( 'creator' ) ;
#93 = PERSON_AND_ORGANIZATION_ROLE ( 'design_supplier' ) ;
#94 = COORDINATED_UNIVERSAL_TIME_OFFSET ( 5, 0, .BEHIND. ) ;
#95 = CARTESIAN_POINT ( 'NONE',  ( 12.49999999999999800, 12.50000000000000000, 0.8000000000000000400 ) ) ;
#96 = AXIS2_PLACEMENT_3D ( 'NONE', #73, #13, #38 ) ;
#97 = LOCAL_TIME ( 12, 51, 20.00000000000000000, #194 ) ;
#98 = ORIENTED_EDGE ( 'NONE', *, *, #12, .F. ) ;
#99 = COORDINATED_UNIVERSAL_TIME_OFFSET ( 5, 0, .BEHIND. ) ;
#100 = ADVANCED_FACE ( 'NONE', ( #10 ), #156, .F. ) ;
#101 = EDGE_LOOP ( 'NONE', ( #64, #86, #98, #23 ) ) ;
#102 = ORIENTED_EDGE ( 'NONE', *, *, #161, .F. ) ;
#103 = EDGE_CURVE ( 'NONE', #124, #150, #31, .T. ) ;
#104 = CARTESIAN_POINT ( 'NONE',  ( 12.50000000000000200, -12.50000000000000000, -0.8000000000000000400 ) ) ;
#105 = VERTEX_POINT ( 'NONE', #154 ) ;
#106 = VECTOR ( 'NONE', #34, 1000.000000000000000 ) ;
#107 = CARTESIAN_POINT ( 'NONE',  ( -12.50000000000000200, 12.49999999999999600, 0.8000000000000000400 ) ) ;
#108 = CARTESIAN_POINT ( 'NONE',  ( 0.0000000000000000000, 0.0000000000000000000, -0.8000000000000000400 ) ) ;
#109 = CC_DESIGN_DATE_AND_TIME_ASSIGNMENT ( #219, #234, ( #58 ) ) ;
#110 = PERSON ( 'UNSPECIFIED', 'UNSPECIFIED', 'UNSPECIFIED', ('UNSPECIFIED'), ('UNSPECIFIED'), ('UNSPECIFIED') ) ;
#111 = CARTESIAN_POINT ( 'NONE',  ( -12.49999999999999500, -12.50000000000000400, 0.8000000000000000400 ) ) ;
#112 = CARTESIAN_POINT ( 'NONE',  ( 12.49999999999999800, 12.50000000000000000, 0.8000000000000000400 ) ) ;
#113 = UNCERTAINTY_MEASURE_WITH_UNIT (LENGTH_MEASURE( 1.000000000000000100E-005 ), #157, 'distance_accuracy_value', 'NONE');
#114 = CARTESIAN_POINT ( 'NONE',  ( 12.49999999999999800, 12.50000000000000000, -0.8000000000000000400 ) ) ;
#115 = DIRECTION ( 'NONE',  ( 2.775557561562891400E-016, -1.000000000000000000, 0.0000000000000000000 ) ) ;
#116 = CC_DESIGN_APPROVAL ( #89, ( #131 ) ) ;
#117 = PERSON_AND_ORGANIZATION_ROLE ( 'creator' ) ;
#118 = PERSON_AND_ORGANIZATION ( #110, #65 ) ;
#119 = EDGE_CURVE ( 'NONE', #76, #178, #132, .T. ) ;
#120 = PERSON_AND_ORGANIZATION_ROLE ( 'design_owner' ) ;
#121 = PERSON_AND_ORGANIZATION ( #110, #65 ) ;
#122 = ADVANCED_FACE ( 'NONE', ( #198 ), #232, .F. ) ;
#123 =( GEOMETRIC_REPRESENTATION_CONTEXT ( 3 ) GLOBAL_UNCERTAINTY_ASSIGNED_CONTEXT ( ( #113 ) ) GLOBAL_UNIT_ASSIGNED_CONTEXT ( ( #157, #191, #15 ) ) REPRESENTATION_CONTEXT ( 'NONE', 'WORKASPACE' ) );
#124 = VERTEX_POINT ( 'NONE', #114 ) ;
#125 = FACE_OUTER_BOUND ( 'NONE', #166, .T. ) ;
#126 = DIRECTION ( 'NONE',  ( -1.387778780781445900E-016, 1.000000000000000000, 0.0000000000000000000 ) ) ;
#127 = FACE_OUTER_BOUND ( 'NONE', #101, .T. ) ;
#128 = DIRECTION ( 'NONE',  ( -1.000000000000000000, 0.0000000000000000000, -0.0000000000000000000 ) ) ;
#129 = EDGE_LOOP ( 'NONE', ( #133, #196, #6, #11 ) ) ;
#130 = CARTESIAN_POINT ( 'NONE',  ( 12.49999999999999800, 12.50000000000000000, 0.8000000000000000400 ) ) ;
#131 = PRODUCT_DEFINITION_FORMATION_WITH_SPECIFIED_SOURCE ( 'ANY', '', #91, .NOT_KNOWN. ) ;
#132 = LINE ( 'NONE', #112, #225 ) ;
#133 = ORIENTED_EDGE ( 'NONE', *, *, #146, .T. ) ;
#134 = APPROVAL_STATUS ( 'not_yet_approved' ) ;
#135 = LINE ( 'NONE', #88, #66 ) ;
#136 = DIRECTION ( 'NONE',  ( 1.000000000000000000, 1.387778780781445700E-016, 0.0000000000000000000 ) ) ;
#137 = CARTESIAN_POINT ( 'NONE',  ( -12.50000000000000200, 12.49999999999999600, -0.8000000000000000400 ) ) ;
#138 = DATE_AND_TIME ( #215, #79 ) ;
#139 = APPROVAL_STATUS ( 'not_yet_approved' ) ;
#140 = AXIS2_PLACEMENT_3D ( 'NONE', #108, #9, #128 ) ;
#141 = APPLICATION_CONTEXT ( 'configuration controlled 3d designs of mechanical parts and assemblies' ) ;
#142 = PERSON_AND_ORGANIZATION ( #110, #65 ) ;
#143 = PERSON_AND_ORGANIZATION ( #110, #65 ) ;
#144 = CC_DESIGN_PERSON_AND_ORGANIZATION_ASSIGNMENT ( #17, #229, ( #20 ) ) ;
#145 = CC_DESIGN_SECURITY_CLASSIFICATION ( #20, ( #131 ) ) ;
#146 = EDGE_CURVE ( 'NONE', #150, #68, #151, .T. ) ;
#147 = ORIENTED_EDGE ( 'NONE', *, *, #22, .F. ) ;
#148 = EDGE_CURVE ( 'NONE', #178, #105, #168, .T. ) ;
#149 = VECTOR ( 'NONE', #77, 1000.000000000000000 ) ;
#150 = VERTEX_POINT ( 'NONE', #236 ) ;
#151 = LINE ( 'NONE', #137, #185 ) ;
#152 = CARTESIAN_POINT ( 'NONE',  ( 12.50000000000000200, -12.50000000000000000, 0.8000000000000000400 ) ) ;
#153 = CLOSED_SHELL ( 'NONE', ( #43, #2, #122, #100, #208, #21 ) ) ;
#154 = CARTESIAN_POINT ( 'NONE',  ( -12.49999999999999500, -12.50000000000000400, 0.8000000000000000400 ) ) ;
#155 = CALENDAR_DATE ( 2017, 19, 4 ) ;
#156 = PLANE ( 'NONE',  #69 ) ;
#157 =( LENGTH_UNIT ( ) NAMED_UNIT ( * ) SI_UNIT ( .MILLI., .METRE. ) );
#158 = VERTEX_POINT ( 'NONE', #78 ) ;
#159 = CC_DESIGN_DATE_AND_TIME_ASSIGNMENT ( #138, #188, ( #20 ) ) ;
#160 = DIRECTION ( 'NONE',  ( 0.0000000000000000000, 0.0000000000000000000, 1.000000000000000000 ) ) ;
#161 = EDGE_CURVE ( 'NONE', #178, #150, #223, .T. ) ;
#162 = DATE_AND_TIME ( #235, #97 ) ;
#163 = CC_DESIGN_APPROVAL ( #175, ( #58 ) ) ;
#164 = CALENDAR_DATE ( 2017, 19, 4 ) ;
#165 = FACE_OUTER_BOUND ( 'NONE', #129, .T. ) ;
#166 = EDGE_LOOP ( 'NONE', ( #210, #171, #3, #224 ) ) ;
#167 = ORIENTED_EDGE ( 'NONE', *, *, #119, .F. ) ;
#168 = LINE ( 'NONE', #202, #49 ) ;
#169 = DIRECTION ( 'NONE',  ( -0.0000000000000000000, -0.0000000000000000000, -1.000000000000000000 ) ) ;
#170 = DIRECTION ( 'NONE',  ( -1.387778780781445700E-016, 1.000000000000000000, -0.0000000000000000000 ) ) ;
#171 = ORIENTED_EDGE ( 'NONE', *, *, #12, .T. ) ;
#172 = CARTESIAN_POINT ( 'NONE',  ( 12.49999999999999800, 12.50000000000000000, 0.8000000000000000400 ) ) ;
#173 = EDGE_CURVE ( 'NONE', #68, #4, #87, .T. ) ;
#174 = CARTESIAN_POINT ( 'NONE',  ( -12.50000000000000200, 12.49999999999999600, 0.8000000000000000400 ) ) ;
#175 = APPROVAL ( #134, 'UNSPECIFIED' ) ;
#176 = DIRECTION ( 'NONE',  ( 1.387778780781445700E-016, -1.000000000000000000, 0.0000000000000000000 ) ) ;
#177 = ORIENTED_EDGE ( 'NONE', *, *, #103, .T. ) ;
#178 = VERTEX_POINT ( 'NONE', #174 ) ;
#179 = COORDINATED_UNIVERSAL_TIME_OFFSET ( 5, 0, .BEHIND. ) ;
#180 = APPROVAL_ROLE ( '' ) ;
#181 = LOCAL_TIME ( 12, 51, 20.00000000000000000, #19 ) ;
#182 = ORIENTED_EDGE ( 'NONE', *, *, #71, .F. ) ;
#183 = ORIENTED_EDGE ( 'NONE', *, *, #103, .F. ) ;
#184 = VECTOR ( 'NONE', #57, 1000.000000000000000 ) ;
#185 = VECTOR ( 'NONE', #115, 1000.000000000000000 ) ;
#186 = PLANE ( 'NONE',  #44 ) ;
#187 = DIRECTION ( 'NONE',  ( -0.0000000000000000000, -0.0000000000000000000, -1.000000000000000000 ) ) ;
#188 = DATE_TIME_ROLE ( 'classification_date' ) ;
#189 = DIRECTION ( 'NONE',  ( -0.0000000000000000000, -0.0000000000000000000, -1.000000000000000000 ) ) ;
#190 = APPROVAL_PERSON_ORGANIZATION ( #36, #221, #72 ) ;
#191 =( NAMED_UNIT ( * ) PLANE_ANGLE_UNIT ( ) SI_UNIT ( $, .RADIAN. ) );
#192 = APPLICATION_CONTEXT ( 'configuration controlled 3d designs of mechanical parts and assemblies' ) ;
#193 = CARTESIAN_POINT ( 'NONE',  ( 12.49999999999999800, 12.50000000000000000, -0.8000000000000000400 ) ) ;
#194 = COORDINATED_UNIVERSAL_TIME_OFFSET ( 5, 0, .BEHIND. ) ;
#195 = APPROVAL_PERSON_ORGANIZATION ( #42, #175, #180 ) ;
#196 = ORIENTED_EDGE ( 'NONE', *, *, #90, .F. ) ;
#197 = MANIFOLD_SOLID_BREP ( 'Boss-Extrude1', #153 ) ;
#198 = FACE_OUTER_BOUND ( 'NONE', #83, .T. ) ;
#199 = ORIENTED_EDGE ( 'NONE', *, *, #233, .F. ) ;
#200 = CARTESIAN_POINT ( 'NONE',  ( 12.49999999999999800, 12.50000000000000000, 0.8000000000000000400 ) ) ;
#201 = APPROVAL_DATE_TIME ( #52, #221 ) ;
#202 = CARTESIAN_POINT ( 'NONE',  ( -12.50000000000000200, 12.49999999999999600, 0.8000000000000000400 ) ) ;
#203 = CC_DESIGN_APPROVAL ( #221, ( #20 ) ) ;
#204 = LINE ( 'NONE', #152, #82 ) ;
#205 = APPLICATION_PROTOCOL_DEFINITION ( 'international standard', 'config_control_design', 1994, #192 ) ;
#206 = PERSON_AND_ORGANIZATION ( #110, #65 ) ;
#207 = APPROVAL_DATE_TIME ( #59, #175 ) ;
#208 = ADVANCED_FACE ( 'NONE', ( #125 ), #228, .F. ) ;
#209 = VECTOR ( 'NONE', #170, 1000.000000000000000 ) ;
#210 = ORIENTED_EDGE ( 'NONE', *, *, #148, .T. ) ;
#211 = DIRECTION ( 'NONE',  ( -1.000000000000000000, -1.387778780781445900E-016, 0.0000000000000000000 ) ) ;
#212 = APPROVAL_ROLE ( '' ) ;
#213 = CARTESIAN_POINT ( 'NONE',  ( -12.50000000000000200, 12.49999999999999600, 0.8000000000000000400 ) ) ;
#214 = DIRECTION ( 'NONE',  ( -1.000000000000000000, -1.387778780781445700E-016, 0.0000000000000000000 ) ) ;
#215 = CALENDAR_DATE ( 2017, 19, 4 ) ;
#216 = DIRECTION ( 'NONE',  ( -1.000000000000000000, -1.387778780781445700E-016, 0.0000000000000000000 ) ) ;
#217 = MECHANICAL_CONTEXT ( 'NONE', #192, 'mechanical' ) ;
#218 = CARTESIAN_POINT ( 'NONE',  ( 0.0000000000000000000, 0.0000000000000000000, 0.0000000000000000000 ) ) ;
#219 = DATE_AND_TIME ( #81, #181 ) ;
#220 = FACE_OUTER_BOUND ( 'NONE', #222, .T. ) ;
#221 = APPROVAL ( #16, 'UNSPECIFIED' ) ;
#222 = EDGE_LOOP ( 'NONE', ( #62, #183, #199, #45 ) ) ;
#223 = LINE ( 'NONE', #213, #24 ) ;
#224 = ORIENTED_EDGE ( 'NONE', *, *, #119, .T. ) ;
#225 = VECTOR ( 'NONE', #214, 1000.000000000000000 ) ;
#226 = DIRECTION ( 'NONE',  ( 1.000000000000000000, 1.387778780781445900E-016, -0.0000000000000000000 ) ) ;
#227 = PRODUCT_DEFINITION_SHAPE ( 'NONE', 'NONE',  #58 ) ;
#228 = PLANE ( 'NONE',  #96 ) ;
#229 = PERSON_AND_ORGANIZATION_ROLE ( 'classification_officer' ) ;
#230 = CARTESIAN_POINT ( 'NONE',  ( 12.49999999999999800, 12.50000000000000000, -0.8000000000000000400 ) ) ;
#231 = LOCAL_TIME ( 12, 51, 20.00000000000000000, #94 ) ;
#232 = PLANE ( 'NONE',  #54 ) ;
#233 = EDGE_CURVE ( 'NONE', #4, #124, #84, .T. ) ;
#234 = DATE_TIME_ROLE ( 'creation_date' ) ;
#235 = CALENDAR_DATE ( 2017, 19, 4 ) ;
#236 = CARTESIAN_POINT ( 'NONE',  ( -12.50000000000000200, 12.49999999999999600, -0.8000000000000000400 ) ) ;
#237 = CC_DESIGN_PERSON_AND_ORGANIZATION_ASSIGNMENT ( #143, #120, ( #91 ) ) ;
ENDSEC;
END-ISO-10303-21;
