ISO-10303-21;
HEADER;
FILE_DESCRIPTION (( 'STEP AP203' ),
    '1' );
FILE_NAME ('Web Model 43927_43927.step',
    '2017-04-24T19:43:39',
    ( '' ),
    ( '' ),
    'SwSTEP 2.0',
    'SolidWorks 2016',
    '' );
FILE_SCHEMA (( 'CONFIG_CONTROL_DESIGN' ));
ENDSEC;

DATA;
#1 = APPROVAL_ROLE ( '' ) ;
#2 = CC_DESIGN_DATE_AND_TIME_ASSIGNMENT ( #46, #51, ( #146 ) ) ;
#3 = VECTOR ( 'NONE', #89, 1000.000000000000000 ) ;
#4 = CARTESIAN_POINT ( 'NONE',  ( -25.40000000000002000, -25.40000000000000600, 0.7500000000000000000 ) ) ;
#5 = ORIENTED_EDGE ( 'NONE', *, *, #127, .F. ) ;
#6 = DATE_AND_TIME ( #203, #185 ) ;
#7 = APPROVAL_DATE_TIME ( #158, #108 ) ;
#8 = ORIENTED_EDGE ( 'NONE', *, *, #201, .T. ) ;
#9 = EDGE_CURVE ( 'NONE', #151, #28, #145, .T. ) ;
#10 = EDGE_CURVE ( 'NONE', #58, #106, #55, .T. ) ;
#11 = ORIENTED_EDGE ( 'NONE', *, *, #224, .T. ) ;
#12 = ORIENTED_EDGE ( 'NONE', *, *, #75, .T. ) ;
#13 = APPROVAL ( #15, 'UNSPECIFIED' ) ;
#14 = CALENDAR_DATE ( 2017, 24, 4 ) ;
#15 = APPROVAL_STATUS ( 'not_yet_approved' ) ;
#16 = PLANE ( 'NONE',  #152 ) ;
#17 = APPROVAL_STATUS ( 'not_yet_approved' ) ;
#18 = VECTOR ( 'NONE', #214, 1000.000000000000000 ) ;
#19 = DATE_AND_TIME ( #157, #63 ) ;
#20 = DIRECTION ( 'NONE',  ( -1.000000000000000000, -2.731847993664262200E-016, 0.0000000000000000000 ) ) ;
#21 = CARTESIAN_POINT ( 'NONE',  ( 0.0000000000000000000, 0.0000000000000000000, 0.7500000000000000000 ) ) ;
#22 = CARTESIAN_POINT ( 'NONE',  ( 25.39999999999999100, 25.40000000000000600, -0.7500000000000000000 ) ) ;
#23 = CC_DESIGN_PERSON_AND_ORGANIZATION_ASSIGNMENT ( #143, #234, ( #83 ) ) ;
#24 = CARTESIAN_POINT ( 'NONE',  ( 25.39999999999999100, -25.39999999999999100, 0.7500000000000000000 ) ) ;
#25 = EDGE_CURVE ( 'NONE', #165, #151, #44, .T. ) ;
#26 = ORIENTED_EDGE ( 'NONE', *, *, #75, .F. ) ;
#27 = FACE_OUTER_BOUND ( 'NONE', #93, .T. ) ;
#28 = VERTEX_POINT ( 'NONE', #182 ) ;
#29 = ORIENTED_EDGE ( 'NONE', *, *, #217, .F. ) ;
#30 = APPROVAL_DATE_TIME ( #223, #190 ) ;
#31 = ORIENTED_EDGE ( 'NONE', *, *, #224, .F. ) ;
#32 = LINE ( 'NONE', #116, #161 ) ;
#33 = VECTOR ( 'NONE', #215, 1000.000000000000000 ) ;
#34 = DIRECTION ( 'NONE',  ( 1.000000000000000000, 0.0000000000000000000, 0.0000000000000000000 ) ) ;
#35 = CARTESIAN_POINT ( 'NONE',  ( -25.40000000000002000, 25.39999999999999100, 0.7500000000000000000 ) ) ;
#36 = CARTESIAN_POINT ( 'NONE',  ( 25.39999999999999100, -25.39999999999999100, 0.7500000000000000000 ) ) ;
#37 = CARTESIAN_POINT ( 'NONE',  ( 25.39999999999999100, -25.39999999999999100, -0.7500000000000000000 ) ) ;
#38 = DIRECTION ( 'NONE',  ( -0.0000000000000000000, -0.0000000000000000000, -1.000000000000000000 ) ) ;
#39 = COORDINATED_UNIVERSAL_TIME_OFFSET ( 5, 0, .BEHIND. ) ;
#40 = DIRECTION ( 'NONE',  ( 1.000000000000000000, 2.731847993664262200E-016, 0.0000000000000000000 ) ) ;
#41 = FACE_OUTER_BOUND ( 'NONE', #53, .T. ) ;
#42 = PERSON_AND_ORGANIZATION ( #138, #153 ) ;
#43 = VECTOR ( 'NONE', #49, 1000.000000000000000 ) ;
#44 = LINE ( 'NONE', #60, #90 ) ;
#45 = ADVANCED_FACE ( 'NONE', ( #109 ), #142, .F. ) ;
#46 = DATE_AND_TIME ( #14, #208 ) ;
#47 = LINE ( 'NONE', #66, #33 ) ;
#48 = CARTESIAN_POINT ( 'NONE',  ( -25.40000000000002000, -25.40000000000000600, 0.7500000000000000000 ) ) ;
#49 = DIRECTION ( 'NONE',  ( -0.0000000000000000000, -1.000000000000000000, -0.0000000000000000000 ) ) ;
#50 = PRODUCT_DEFINITION ( 'UNKNOWN', '', #205, #126 ) ;
#51 = DATE_TIME_ROLE ( 'classification_date' ) ;
#52 = CARTESIAN_POINT ( 'NONE',  ( -25.40000000000002000, -25.40000000000000600, -0.7500000000000000000 ) ) ;
#53 = EDGE_LOOP ( 'NONE', ( #12, #170, #102, #218 ) ) ;
#54 = CC_DESIGN_PERSON_AND_ORGANIZATION_ASSIGNMENT ( #59, #198, ( #205 ) ) ;
#55 = LINE ( 'NONE', #120, #206 ) ;
#56 = ORIENTED_EDGE ( 'NONE', *, *, #150, .T. ) ;
#57 = CC_DESIGN_PERSON_AND_ORGANIZATION_ASSIGNMENT ( #131, #140, ( #146 ) ) ;
#58 = VERTEX_POINT ( 'NONE', #176 ) ;
#59 = PERSON_AND_ORGANIZATION ( #138, #153 ) ;
#60 = CARTESIAN_POINT ( 'NONE',  ( -25.40000000000002000, 25.39999999999999100, 0.7500000000000000000 ) ) ;
#61 = VECTOR ( 'NONE', #64, 1000.000000000000000 ) ;
#62 = ADVANCED_FACE ( 'NONE', ( #27 ), #101, .F. ) ;
#63 = LOCAL_TIME ( 15, 43, 39.00000000000000000, #178 ) ;
#64 = DIRECTION ( 'NONE',  ( 1.000000000000000000, 2.731847993664262200E-016, -0.0000000000000000000 ) ) ;
#65 = CARTESIAN_POINT ( 'NONE',  ( 25.39999999999999100, -25.39999999999999100, -0.7500000000000000000 ) ) ;
#66 = CARTESIAN_POINT ( 'NONE',  ( 25.39999999999999100, -25.39999999999999100, -0.7500000000000000000 ) ) ;
#67 = APPROVAL_PERSON_ORGANIZATION ( #104, #108, #1 ) ;
#68 =( NAMED_UNIT ( * ) PLANE_ANGLE_UNIT ( ) SI_UNIT ( $, .RADIAN. ) );
#69 = VERTEX_POINT ( 'NONE', #24 ) ;
#70 = FACE_OUTER_BOUND ( 'NONE', #77, .T. ) ;
#71 = ORIENTED_EDGE ( 'NONE', *, *, #25, .F. ) ;
#72 = AXIS2_PLACEMENT_3D ( 'NONE', #216, #156, #34 ) ;
#73 = APPROVAL_PERSON_ORGANIZATION ( #42, #190, #180 ) ;
#74 = UNCERTAINTY_MEASURE_WITH_UNIT (LENGTH_MEASURE( 1.000000000000000100E-005 ), #122, 'distance_accuracy_value', 'NONE');
#75 = EDGE_CURVE ( 'NONE', #28, #147, #47, .T. ) ;
#76 = LINE ( 'NONE', #65, #3 ) ;
#77 = EDGE_LOOP ( 'NONE', ( #56, #8, #183, #186 ) ) ;
#78 = CC_DESIGN_DATE_AND_TIME_ASSIGNMENT ( #6, #174, ( #50 ) ) ;
#79 = ADVANCED_FACE ( 'NONE', ( #154 ), #16, .F. ) ;
#80 = PERSON_AND_ORGANIZATION ( #138, #153 ) ;
#81 = PLANE ( 'NONE',  #144 ) ;
#82 = DIRECTION ( 'NONE',  ( -1.000000000000000000, -2.731847993664262200E-016, 0.0000000000000000000 ) ) ;
#83 = PRODUCT ( 'Web Model 43927_43927', 'Web Model 43927_43927', '', ( #231 ) ) ;
#84 = DIRECTION ( 'NONE',  ( 0.0000000000000000000, 0.0000000000000000000, 1.000000000000000000 ) ) ;
#85 = VECTOR ( 'NONE', #20, 1000.000000000000000 ) ;
#86 = DIRECTION ( 'NONE',  ( -1.000000000000000000, -2.731847993664262200E-016, 0.0000000000000000000 ) ) ;
#87 = DIRECTION ( 'NONE',  ( 1.000000000000000000, 0.0000000000000000000, 0.0000000000000000000 ) ) ;
#88 =( NAMED_UNIT ( * ) SI_UNIT ( $, .STERADIAN. ) SOLID_ANGLE_UNIT ( ) );
#89 = DIRECTION ( 'NONE',  ( 0.0000000000000000000, 1.000000000000000000, 0.0000000000000000000 ) ) ;
#90 = VECTOR ( 'NONE', #167, 1000.000000000000000 ) ;
#91 = ADVANCED_BREP_SHAPE_REPRESENTATION ( 'Web Model 43927_43927', ( #181, #72 ), #219 ) ;
#92 = ORIENTED_EDGE ( 'NONE', *, *, #25, .T. ) ;
#93 = EDGE_LOOP ( 'NONE', ( #168, #5, #166, #92 ) ) ;
#94 = PERSON_AND_ORGANIZATION ( #138, #153 ) ;
#95 = ADVANCED_FACE ( 'NONE', ( #229 ), #179, .F. ) ;
#96 = APPLICATION_CONTEXT ( 'configuration controlled 3d designs of mechanical parts and assemblies' ) ;
#97 = CC_DESIGN_APPROVAL ( #13, ( #146 ) ) ;
#98 = ORIENTED_EDGE ( 'NONE', *, *, #10, .F. ) ;
#99 = APPROVAL_DATE_TIME ( #19, #13 ) ;
#100 = CARTESIAN_POINT ( 'NONE',  ( 0.0000000000000000000, 0.0000000000000000000, -0.7500000000000000000 ) ) ;
#101 = PLANE ( 'NONE',  #175 ) ;
#102 = ORIENTED_EDGE ( 'NONE', *, *, #201, .F. ) ;
#103 = CARTESIAN_POINT ( 'NONE',  ( -25.40000000000002000, -25.40000000000000600, 0.7500000000000000000 ) ) ;
#104 = PERSON_AND_ORGANIZATION ( #138, #153 ) ;
#105 = DIRECTION ( 'NONE',  ( -0.0000000000000000000, -0.0000000000000000000, -1.000000000000000000 ) ) ;
#106 = VERTEX_POINT ( 'NONE', #22 ) ;
#107 = EDGE_LOOP ( 'NONE', ( #128, #31, #125, #26 ) ) ;
#108 = APPROVAL ( #123, 'UNSPECIFIED' ) ;
#109 = FACE_OUTER_BOUND ( 'NONE', #107, .T. ) ;
#110 = COORDINATED_UNIVERSAL_TIME_OFFSET ( 5, 0, .BEHIND. ) ;
#111 = EDGE_CURVE ( 'NONE', #147, #106, #76, .T. ) ;
#112 = SHAPE_DEFINITION_REPRESENTATION ( #230, #91 ) ;
#113 = AXIS2_PLACEMENT_3D ( 'NONE', #21, #117, #160 ) ;
#114 = APPLICATION_PROTOCOL_DEFINITION ( 'international standard', 'config_control_design', 1994, #124 ) ;
#115 = CARTESIAN_POINT ( 'NONE',  ( 25.39999999999999100, 25.40000000000000600, 0.7500000000000000000 ) ) ;
#116 = CARTESIAN_POINT ( 'NONE',  ( 25.39999999999999100, 25.40000000000000600, -0.7500000000000000000 ) ) ;
#117 = DIRECTION ( 'NONE',  ( 0.0000000000000000000, -0.0000000000000000000, 1.000000000000000000 ) ) ;
#118 = ORIENTED_EDGE ( 'NONE', *, *, #111, .T. ) ;
#119 = EDGE_LOOP ( 'NONE', ( #11, #71, #204, #200 ) ) ;
#120 = CARTESIAN_POINT ( 'NONE',  ( 25.39999999999999100, 25.40000000000000600, 0.7500000000000000000 ) ) ;
#121 = APPLICATION_PROTOCOL_DEFINITION ( 'international standard', 'config_control_design', 1994, #96 ) ;
#122 =( LENGTH_UNIT ( ) NAMED_UNIT ( * ) SI_UNIT ( .MILLI., .METRE. ) );
#123 = APPROVAL_STATUS ( 'not_yet_approved' ) ;
#124 = APPLICATION_CONTEXT ( 'configuration controlled 3d designs of mechanical parts and assemblies' ) ;
#125 = ORIENTED_EDGE ( 'NONE', *, *, #111, .F. ) ;
#126 = DESIGN_CONTEXT ( 'detailed design', #96, 'design' ) ;
#127 = EDGE_CURVE ( 'NONE', #207, #28, #228, .T. ) ;
#128 = ORIENTED_EDGE ( 'NONE', *, *, #9, .F. ) ;
#129 = LINE ( 'NONE', #232, #43 ) ;
#130 = ORIENTED_EDGE ( 'NONE', *, *, #192, .T. ) ;
#131 = PERSON_AND_ORGANIZATION ( #138, #153 ) ;
#132 = ADVANCED_FACE ( 'NONE', ( #70 ), #233, .T. ) ;
#133 = CC_DESIGN_PERSON_AND_ORGANIZATION_ASSIGNMENT ( #196, #194, ( #50 ) ) ;
#134 = LINE ( 'NONE', #177, #18 ) ;
#135 = DIRECTION ( 'NONE',  ( -2.731847993664262200E-016, 1.000000000000000000, 0.0000000000000000000 ) ) ;
#136 = CARTESIAN_POINT ( 'NONE',  ( 25.39999999999999100, -25.39999999999999100, 0.7500000000000000000 ) ) ;
#137 = PERSON_AND_ORGANIZATION_ROLE ( 'design_supplier' ) ;
#138 = PERSON ( 'UNSPECIFIED', 'UNSPECIFIED', 'UNSPECIFIED', ('UNSPECIFIED'), ('UNSPECIFIED'), ('UNSPECIFIED') ) ;
#139 = CARTESIAN_POINT ( 'NONE',  ( -25.40000000000002000, 25.39999999999999100, -0.7500000000000000000 ) ) ;
#140 = PERSON_AND_ORGANIZATION_ROLE ( 'classification_officer' ) ;
#141 = DIRECTION ( 'NONE',  ( 1.000000000000000000, 0.0000000000000000000, -0.0000000000000000000 ) ) ;
#142 = PLANE ( 'NONE',  #225 ) ;
#143 = PERSON_AND_ORGANIZATION ( #138, #153 ) ;
#144 = AXIS2_PLACEMENT_3D ( 'NONE', #236, #135, #82 ) ;
#145 = LINE ( 'NONE', #52, #212 ) ;
#146 = SECURITY_CLASSIFICATION ( '', '', #163 ) ;
#147 = VERTEX_POINT ( 'NONE', #37 ) ;
#148 = LOCAL_TIME ( 15, 43, 39.00000000000000000, #110 ) ;
#149 = EDGE_CURVE ( 'NONE', #58, #165, #210, .T. ) ;
#150 = EDGE_CURVE ( 'NONE', #165, #207, #129, .T. ) ;
#151 = VERTEX_POINT ( 'NONE', #139 ) ;
#152 = AXIS2_PLACEMENT_3D ( 'NONE', #193, #209, #84 ) ;
#153 = ORGANIZATION ( 'UNSPECIFIED', 'UNSPECIFIED', '' ) ;
#154 = FACE_OUTER_BOUND ( 'NONE', #222, .T. ) ;
#155 = CC_DESIGN_APPROVAL ( #190, ( #205 ) ) ;
#156 = DIRECTION ( 'NONE',  ( 0.0000000000000000000, 0.0000000000000000000, 1.000000000000000000 ) ) ;
#157 = CALENDAR_DATE ( 2017, 24, 4 ) ;
#158 = DATE_AND_TIME ( #195, #235 ) ;
#159 = CARTESIAN_POINT ( 'NONE',  ( 25.39999999999999100, 25.40000000000000600, 0.7500000000000000000 ) ) ;
#160 = DIRECTION ( 'NONE',  ( 1.000000000000000000, 0.0000000000000000000, -0.0000000000000000000 ) ) ;
#161 = VECTOR ( 'NONE', #86, 1000.000000000000000 ) ;
#162 = DIRECTION ( 'NONE',  ( 0.0000000000000000000, -0.0000000000000000000, 1.000000000000000000 ) ) ;
#163 = SECURITY_CLASSIFICATION_LEVEL ( 'unclassified' ) ;
#164 = DIRECTION ( 'NONE',  ( 2.731847993664262200E-016, -1.000000000000000000, 0.0000000000000000000 ) ) ;
#165 = VERTEX_POINT ( 'NONE', #35 ) ;
#166 = ORIENTED_EDGE ( 'NONE', *, *, #150, .F. ) ;
#167 = DIRECTION ( 'NONE',  ( -0.0000000000000000000, -0.0000000000000000000, -1.000000000000000000 ) ) ;
#168 = ORIENTED_EDGE ( 'NONE', *, *, #9, .T. ) ;
#169 = COORDINATED_UNIVERSAL_TIME_OFFSET ( 5, 0, .BEHIND. ) ;
#170 = ORIENTED_EDGE ( 'NONE', *, *, #192, .F. ) ;
#171 = LINE ( 'NONE', #136, #61 ) ;
#172 = APPROVAL_ROLE ( '' ) ;
#173 = PRODUCT_RELATED_PRODUCT_CATEGORY ( 'detail', '', ( #83 ) ) ;
#174 = DATE_TIME_ROLE ( 'creation_date' ) ;
#175 = AXIS2_PLACEMENT_3D ( 'NONE', #103, #87, #197 ) ;
#176 = CARTESIAN_POINT ( 'NONE',  ( 25.39999999999999100, 25.40000000000000600, 0.7500000000000000000 ) ) ;
#177 = CARTESIAN_POINT ( 'NONE',  ( 25.39999999999999100, -25.39999999999999100, 0.7500000000000000000 ) ) ;
#178 = COORDINATED_UNIVERSAL_TIME_OFFSET ( 5, 0, .BEHIND. ) ;
#179 = PLANE ( 'NONE',  #184 ) ;
#180 = APPROVAL_ROLE ( '' ) ;
#181 = MANIFOLD_SOLID_BREP ( 'Boss-Extrude1', #191 ) ;
#182 = CARTESIAN_POINT ( 'NONE',  ( -25.40000000000002000, -25.40000000000000600, -0.7500000000000000000 ) ) ;
#183 = ORIENTED_EDGE ( 'NONE', *, *, #217, .T. ) ;
#184 = AXIS2_PLACEMENT_3D ( 'NONE', #115, #164, #40 ) ;
#185 = LOCAL_TIME ( 15, 43, 39.00000000000000000, #237 ) ;
#186 = ORIENTED_EDGE ( 'NONE', *, *, #149, .T. ) ;
#187 = CALENDAR_DATE ( 2017, 24, 4 ) ;
#188 = VECTOR ( 'NONE', #213, 1000.000000000000000 ) ;
#189 = ADVANCED_FACE ( 'NONE', ( #41 ), #81, .F. ) ;
#190 = APPROVAL ( #17, 'UNSPECIFIED' ) ;
#191 = CLOSED_SHELL ( 'NONE', ( #62, #189, #79, #95, #132, #45 ) ) ;
#192 = EDGE_CURVE ( 'NONE', #69, #147, #134, .T. ) ;
#193 = CARTESIAN_POINT ( 'NONE',  ( 25.39999999999999100, -25.39999999999999100, 0.7500000000000000000 ) ) ;
#194 = PERSON_AND_ORGANIZATION_ROLE ( 'creator' ) ;
#195 = CALENDAR_DATE ( 2017, 24, 4 ) ;
#196 = PERSON_AND_ORGANIZATION ( #138, #153 ) ;
#197 = DIRECTION ( 'NONE',  ( 0.0000000000000000000, 0.0000000000000000000, -1.000000000000000000 ) ) ;
#198 = PERSON_AND_ORGANIZATION_ROLE ( 'creator' ) ;
#199 = DIRECTION ( 'NONE',  ( -0.0000000000000000000, -1.000000000000000000, -0.0000000000000000000 ) ) ;
#200 = ORIENTED_EDGE ( 'NONE', *, *, #10, .T. ) ;
#201 = EDGE_CURVE ( 'NONE', #207, #69, #171, .T. ) ;
#202 = CC_DESIGN_SECURITY_CLASSIFICATION ( #146, ( #205 ) ) ;
#203 = CALENDAR_DATE ( 2017, 24, 4 ) ;
#204 = ORIENTED_EDGE ( 'NONE', *, *, #149, .F. ) ;
#205 = PRODUCT_DEFINITION_FORMATION_WITH_SPECIFIED_SOURCE ( 'ANY', '', #83, .NOT_KNOWN. ) ;
#206 = VECTOR ( 'NONE', #38, 1000.000000000000000 ) ;
#207 = VERTEX_POINT ( 'NONE', #48 ) ;
#208 = LOCAL_TIME ( 15, 43, 39.00000000000000000, #169 ) ;
#209 = DIRECTION ( 'NONE',  ( -1.000000000000000000, 0.0000000000000000000, 0.0000000000000000000 ) ) ;
#210 = LINE ( 'NONE', #159, #85 ) ;
#211 = APPROVAL_PERSON_ORGANIZATION ( #80, #13, #172 ) ;
#212 = VECTOR ( 'NONE', #199, 1000.000000000000000 ) ;
#213 = DIRECTION ( 'NONE',  ( 0.0000000000000000000, 1.000000000000000000, 0.0000000000000000000 ) ) ;
#214 = DIRECTION ( 'NONE',  ( -0.0000000000000000000, -0.0000000000000000000, -1.000000000000000000 ) ) ;
#215 = DIRECTION ( 'NONE',  ( 1.000000000000000000, 2.731847993664262200E-016, -0.0000000000000000000 ) ) ;
#216 = CARTESIAN_POINT ( 'NONE',  ( 0.0000000000000000000, 0.0000000000000000000, 0.0000000000000000000 ) ) ;
#217 = EDGE_CURVE ( 'NONE', #69, #58, #226, .T. ) ;
#218 = ORIENTED_EDGE ( 'NONE', *, *, #127, .T. ) ;
#219 =( GEOMETRIC_REPRESENTATION_CONTEXT ( 3 ) GLOBAL_UNCERTAINTY_ASSIGNED_CONTEXT ( ( #74 ) ) GLOBAL_UNIT_ASSIGNED_CONTEXT ( ( #122, #68, #88 ) ) REPRESENTATION_CONTEXT ( 'NONE', 'WORKASPACE' ) );
#220 = VECTOR ( 'NONE', #105, 1000.000000000000000 ) ;
#221 = CC_DESIGN_PERSON_AND_ORGANIZATION_ASSIGNMENT ( #94, #137, ( #205 ) ) ;
#222 = EDGE_LOOP ( 'NONE', ( #118, #98, #29, #130 ) ) ;
#223 = DATE_AND_TIME ( #187, #148 ) ;
#224 = EDGE_CURVE ( 'NONE', #106, #151, #32, .T. ) ;
#225 = AXIS2_PLACEMENT_3D ( 'NONE', #100, #162, #141 ) ;
#226 = LINE ( 'NONE', #36, #188 ) ;
#227 = CC_DESIGN_APPROVAL ( #108, ( #50 ) ) ;
#228 = LINE ( 'NONE', #4, #220 ) ;
#229 = FACE_OUTER_BOUND ( 'NONE', #119, .T. ) ;
#230 = PRODUCT_DEFINITION_SHAPE ( 'NONE', 'NONE',  #50 ) ;
#231 = MECHANICAL_CONTEXT ( 'NONE', #124, 'mechanical' ) ;
#232 = CARTESIAN_POINT ( 'NONE',  ( -25.40000000000002000, -25.40000000000000600, 0.7500000000000000000 ) ) ;
#233 = PLANE ( 'NONE',  #113 ) ;
#234 = PERSON_AND_ORGANIZATION_ROLE ( 'design_owner' ) ;
#235 = LOCAL_TIME ( 15, 43, 39.00000000000000000, #39 ) ;
#236 = CARTESIAN_POINT ( 'NONE',  ( 25.39999999999999100, -25.39999999999999100, 0.7500000000000000000 ) ) ;
#237 = COORDINATED_UNIVERSAL_TIME_OFFSET ( 5, 0, .BEHIND. ) ;
ENDSEC;
END-ISO-10303-21;
