ISO-10303-21;
HEADER;
FILE_DESCRIPTION (( 'STEP AP214' ),
    '1' );
FILE_NAME ('21328.step',
    '2022-07-14T19:21:22',
    ( '' ),
    ( '' ),
    'SwSTEP 2.0',
    'SolidWorks 2021',
    '' );
FILE_SCHEMA (( 'AUTOMOTIVE_DESIGN' ));
ENDSEC;

DATA;
#1 = VERTEX_POINT ( 'NONE', #44 ) ;
#2 = EDGE_LOOP ( 'NONE', ( #3, #63, #95, #108 ) ) ;
#3 = ORIENTED_EDGE ( 'NONE', *, *, #101, .F. ) ;
#4 = ORIENTED_EDGE ( 'NONE', *, *, #24, .F. ) ;
#5 =( NAMED_UNIT ( * ) SI_UNIT ( $, .STERADIAN. ) SOLID_ANGLE_UNIT ( ) );
#6 = CARTESIAN_POINT ( 'NONE',  ( 0.000000000000000000, 0.000000000000000000, 3.000000000000000000 ) ) ;
#7 = DIRECTION ( 'NONE',  ( -0.000000000000000000, -0.000000000000000000, -1.000000000000000000 ) ) ;
#8 = PRODUCT_DEFINITION_SHAPE ( 'NONE', 'NONE',  #132 ) ;
#9 = DIRECTION ( 'NONE',  ( -1.000000000000000000, 0.000000000000000000, 0.000000000000000000 ) ) ;
#10 = ADVANCED_FACE ( 'NONE', ( #87 ), #72, .T. ) ;
#11 = ORIENTED_EDGE ( 'NONE', *, *, #71, .T. ) ;
#12 = ADVANCED_FACE ( 'NONE', ( #55 ), #97, .T. ) ;
#13 = PRESENTATION_LAYER_ASSIGNMENT (  '', '', ( #128 ) ) ;
#14 = SURFACE_STYLE_FILL_AREA ( #140 ) ;
#15 = AXIS2_PLACEMENT_3D ( 'NONE', #29, #76, #118 ) ;
#16 =( GEOMETRIC_REPRESENTATION_CONTEXT ( 3 ) GLOBAL_UNCERTAINTY_ASSIGNED_CONTEXT ( ( #62 ) ) GLOBAL_UNIT_ASSIGNED_CONTEXT ( ( #51, #139, #5 ) ) REPRESENTATION_CONTEXT ( 'NONE', 'WORKASPACE' ) );
#17 = APPLICATION_PROTOCOL_DEFINITION ( 'draft international standard', 'automotive_design', 1998, #30 ) ;
#18 = CARTESIAN_POINT ( 'NONE',  ( 0.000000000000000000, 0.000000000000000000, 3.000000000000000000 ) ) ;
#19 = AXIS2_PLACEMENT_3D ( 'NONE', #22, #134, #32 ) ;
#20 = EDGE_LOOP ( 'NONE', ( #57, #121, #133, #54 ) ) ;
#21 = AXIS2_PLACEMENT_3D ( 'NONE', #53, #113, #89 ) ;
#22 = CARTESIAN_POINT ( 'NONE',  ( 0.000000000000000000, 0.000000000000000000, 3.000000000000000000 ) ) ;
#23 = PLANE ( 'NONE',  #94 ) ;
#24 = EDGE_CURVE ( 'NONE', #1, #78, #109, .T. ) ;
#25 = DIRECTION ( 'NONE',  ( 0.000000000000000000, 0.000000000000000000, 1.000000000000000000 ) ) ;
#26 = CARTESIAN_POINT ( 'NONE',  ( -37.50000000000000711, 0.000000000000000000, 0.000000000000000000 ) ) ;
#27 = CIRCLE ( 'NONE', #21, 37.50000000000000711 ) ;
#28 = CARTESIAN_POINT ( 'NONE',  ( 0.000000000000000000, 0.000000000000000000, 0.000000000000000000 ) ) ;
#29 = CARTESIAN_POINT ( 'NONE',  ( 0.000000000000000000, 0.000000000000000000, 3.000000000000000000 ) ) ;
#30 = APPLICATION_CONTEXT ( 'automotive_design' ) ;
#31 = AXIS2_PLACEMENT_3D ( 'NONE', #6, #91, #125 ) ;
#32 = DIRECTION ( 'NONE',  ( 1.000000000000000000, 0.000000000000000000, 0.000000000000000000 ) ) ;
#33 = EDGE_CURVE ( 'NONE', #111, #78, #66, .T. ) ;
#34 = CARTESIAN_POINT ( 'NONE',  ( 0.000000000000000000, 0.000000000000000000, 0.000000000000000000 ) ) ;
#35 = PRODUCT_DEFINITION_CONTEXT ( 'detailed design', #30, 'design' ) ;
#36 = FILL_AREA_STYLE_COLOUR ( '', #102 ) ;
#37 = CARTESIAN_POINT ( 'NONE',  ( 37.50000000000000711, 4.592425496802575156E-15, 3.000000000000000000 ) ) ;
#38 = FILL_AREA_STYLE_COLOUR ( '', #106 ) ;
#39 = PRODUCT_RELATED_PRODUCT_CATEGORY ( 'part', '', ( #82 ) ) ;
#40 = CARTESIAN_POINT ( 'NONE',  ( 0.000000000000000000, 0.000000000000000000, 3.000000000000000000 ) ) ;
#41 =( NAMED_UNIT ( * ) PLANE_ANGLE_UNIT ( ) SI_UNIT ( $, .RADIAN. ) );
#42 = MECHANICAL_DESIGN_GEOMETRIC_PRESENTATION_REPRESENTATION (  '', ( #116 ), #100 ) ;
#43 = VERTEX_POINT ( 'NONE', #69 ) ;
#44 = CARTESIAN_POINT ( 'NONE',  ( 37.50000000000000711, 4.592425496802575156E-15, 0.000000000000000000 ) ) ;
#45 = AXIS2_PLACEMENT_3D ( 'NONE', #40, #103, #59 ) ;
#46 = AXIS2_PLACEMENT_3D ( 'NONE', #18, #105, #9 ) ;
#47 = AXIS2_PLACEMENT_3D ( 'NONE', #58, #25, #137 ) ;
#48 = DIRECTION ( 'NONE',  ( -0.000000000000000000, -0.000000000000000000, -1.000000000000000000 ) ) ;
#49 = FACE_OUTER_BOUND ( 'NONE', #20, .T. ) ;
#50 =( LENGTH_UNIT ( ) NAMED_UNIT ( * ) SI_UNIT ( .MILLI., .METRE. ) );
#51 =( LENGTH_UNIT ( ) NAMED_UNIT ( * ) SI_UNIT ( .MILLI., .METRE. ) );
#52 =( NAMED_UNIT ( * ) PLANE_ANGLE_UNIT ( ) SI_UNIT ( $, .RADIAN. ) );
#53 = CARTESIAN_POINT ( 'NONE',  ( 0.000000000000000000, 0.000000000000000000, 0.000000000000000000 ) ) ;
#54 = ORIENTED_EDGE ( 'NONE', *, *, #33, .F. ) ;
#55 = FACE_OUTER_BOUND ( 'NONE', #2, .T. ) ;
#56 = UNCERTAINTY_MEASURE_WITH_UNIT (LENGTH_MEASURE( 1.000000000000000082E-05 ), #88, 'distance_accuracy_value', 'NONE');
#57 = ORIENTED_EDGE ( 'NONE', *, *, #71, .F. ) ;
#58 = CARTESIAN_POINT ( 'NONE',  ( 0.000000000000000000, 0.000000000000000000, 0.000000000000000000 ) ) ;
#59 = DIRECTION ( 'NONE',  ( -1.000000000000000000, 0.000000000000000000, 0.000000000000000000 ) ) ;
#60 = SHAPE_DEFINITION_REPRESENTATION ( #8, #61 ) ;
#61 = ADVANCED_BREP_SHAPE_REPRESENTATION ( '21328', ( #79, #47 ), #135 ) ;
#62 = UNCERTAINTY_MEASURE_WITH_UNIT (LENGTH_MEASURE( 1.000000000000000082E-05 ), #51, 'distance_accuracy_value', 'NONE');
#63 = ORIENTED_EDGE ( 'NONE', *, *, #131, .F. ) ;
#64 = EDGE_LOOP ( 'NONE', ( #96, #4 ) ) ;
#65 = PRESENTATION_LAYER_ASSIGNMENT (  '', '', ( #116 ) ) ;
#66 = LINE ( 'NONE', #112, #75 ) ;
#67 = SURFACE_SIDE_STYLE ('',( #83 ) ) ;
#68 = PRODUCT_CONTEXT ( 'NONE', #85, 'mechanical' ) ;
#69 = CARTESIAN_POINT ( 'NONE',  ( 37.50000000000000711, 4.592425496802575156E-15, 3.000000000000000000 ) ) ;
#70 =( NAMED_UNIT ( * ) SI_UNIT ( $, .STERADIAN. ) SOLID_ANGLE_UNIT ( ) );
#71 = EDGE_CURVE ( 'NONE', #43, #111, #93, .T. ) ;
#72 = PLANE ( 'NONE',  #15 ) ;
#73 = DIRECTION ( 'NONE',  ( 0.000000000000000000, 0.000000000000000000, 1.000000000000000000 ) ) ;
#74 = ADVANCED_FACE ( 'NONE', ( #49 ), #117, .T. ) ;
#75 = VECTOR ( 'NONE', #7, 1000.000000000000000 ) ;
#76 = DIRECTION ( 'NONE',  ( 0.000000000000000000, 0.000000000000000000, 1.000000000000000000 ) ) ;
#77 = UNCERTAINTY_MEASURE_WITH_UNIT (LENGTH_MEASURE( 1.000000000000000082E-05 ), #50, 'distance_accuracy_value', 'NONE');
#78 = VERTEX_POINT ( 'NONE', #26 ) ;
#79 = MANIFOLD_SOLID_BREP ( 'Boss-Extrude1', #90 ) ;
#80 = CARTESIAN_POINT ( 'NONE',  ( -37.50000000000000711, 0.000000000000000000, 3.000000000000000000 ) ) ;
#81 = DIRECTION ( 'NONE',  ( 0.000000000000000000, 0.000000000000000000, 1.000000000000000000 ) ) ;
#82 = PRODUCT ( '21328', '21328', '', ( #68 ) ) ;
#83 = SURFACE_STYLE_FILL_AREA ( #84 ) ;
#84 = FILL_AREA_STYLE ('',( #38 ) ) ;
#85 = APPLICATION_CONTEXT ( 'automotive_design' ) ;
#86 = ADVANCED_FACE ( 'NONE', ( #136 ), #23, .F. ) ;
#87 = FACE_OUTER_BOUND ( 'NONE', #99, .T. ) ;
#88 =( LENGTH_UNIT ( ) NAMED_UNIT ( * ) SI_UNIT ( .MILLI., .METRE. ) );
#89 = DIRECTION ( 'NONE',  ( 1.000000000000000000, 0.000000000000000000, 0.000000000000000000 ) ) ;
#90 = CLOSED_SHELL ( 'NONE', ( #74, #12, #10, #86 ) ) ;
#91 = DIRECTION ( 'NONE',  ( 0.000000000000000000, 0.000000000000000000, 1.000000000000000000 ) ) ;
#92 = MECHANICAL_DESIGN_GEOMETRIC_PRESENTATION_REPRESENTATION (  '', ( #128 ), #16 ) ;
#93 = CIRCLE ( 'NONE', #31, 37.50000000000000711 ) ;
#94 = AXIS2_PLACEMENT_3D ( 'NONE', #34, #81, #122 ) ;
#95 = ORIENTED_EDGE ( 'NONE', *, *, #33, .T. ) ;
#96 = ORIENTED_EDGE ( 'NONE', *, *, #98, .F. ) ;
#97 = CYLINDRICAL_SURFACE ( 'NONE', #46, 37.50000000000000711 ) ;
#98 = EDGE_CURVE ( 'NONE', #78, #1, #27, .T. ) ;
#99 = EDGE_LOOP ( 'NONE', ( #107, #11 ) ) ;
#100 =( GEOMETRIC_REPRESENTATION_CONTEXT ( 3 ) GLOBAL_UNCERTAINTY_ASSIGNED_CONTEXT ( ( #77 ) ) GLOBAL_UNIT_ASSIGNED_CONTEXT ( ( #50, #41, #123 ) ) REPRESENTATION_CONTEXT ( 'NONE', 'WORKASPACE' ) );
#101 = EDGE_CURVE ( 'NONE', #43, #1, #138, .T. ) ;
#102 = COLOUR_RGB ( '',0.7921568627450980005, 0.8196078431372548767, 0.9333333333333333481 ) ;
#103 = DIRECTION ( 'NONE',  ( -0.000000000000000000, -0.000000000000000000, -1.000000000000000000 ) ) ;
#104 = SURFACE_SIDE_STYLE ('',( #14 ) ) ;
#105 = DIRECTION ( 'NONE',  ( -0.000000000000000000, -0.000000000000000000, -1.000000000000000000 ) ) ;
#106 = COLOUR_RGB ( '',0.7921568627450980005, 0.8196078431372548767, 0.9333333333333333481 ) ;
#107 = ORIENTED_EDGE ( 'NONE', *, *, #131, .T. ) ;
#108 = ORIENTED_EDGE ( 'NONE', *, *, #98, .T. ) ;
#109 = CIRCLE ( 'NONE', #130, 37.50000000000000711 ) ;
#110 = CIRCLE ( 'NONE', #19, 37.50000000000000711 ) ;
#111 = VERTEX_POINT ( 'NONE', #80 ) ;
#112 = CARTESIAN_POINT ( 'NONE',  ( -37.50000000000000711, 0.000000000000000000, 3.000000000000000000 ) ) ;
#113 = DIRECTION ( 'NONE',  ( 0.000000000000000000, 0.000000000000000000, 1.000000000000000000 ) ) ;
#114 = APPLICATION_PROTOCOL_DEFINITION ( 'draft international standard', 'automotive_design', 1998, #85 ) ;
#115 = PRESENTATION_STYLE_ASSIGNMENT (( #127 ) ) ;
#116 = STYLED_ITEM ( 'NONE', ( #124 ), #61 ) ;
#117 = CYLINDRICAL_SURFACE ( 'NONE', #45, 37.50000000000000711 ) ;
#118 = DIRECTION ( 'NONE',  ( 1.000000000000000000, 0.000000000000000000, -0.000000000000000000 ) ) ;
#119 = DIRECTION ( 'NONE',  ( 1.000000000000000000, 0.000000000000000000, 0.000000000000000000 ) ) ;
#120 = VECTOR ( 'NONE', #48, 1000.000000000000000 ) ;
#121 = ORIENTED_EDGE ( 'NONE', *, *, #101, .T. ) ;
#122 = DIRECTION ( 'NONE',  ( 1.000000000000000000, 0.000000000000000000, -0.000000000000000000 ) ) ;
#123 =( NAMED_UNIT ( * ) SI_UNIT ( $, .STERADIAN. ) SOLID_ANGLE_UNIT ( ) );
#124 = PRESENTATION_STYLE_ASSIGNMENT (( #126 ) ) ;
#125 = DIRECTION ( 'NONE',  ( 1.000000000000000000, 0.000000000000000000, 0.000000000000000000 ) ) ;
#126 = SURFACE_STYLE_USAGE ( .BOTH. , #104 ) ;
#127 = SURFACE_STYLE_USAGE ( .BOTH. , #67 ) ;
#128 = STYLED_ITEM ( 'NONE', ( #115 ), #79 ) ;
#129 = PRODUCT_DEFINITION_FORMATION_WITH_SPECIFIED_SOURCE ( 'ANY', '', #82, .NOT_KNOWN. ) ;
#130 = AXIS2_PLACEMENT_3D ( 'NONE', #28, #73, #119 ) ;
#131 = EDGE_CURVE ( 'NONE', #111, #43, #110, .T. ) ;
#132 = PRODUCT_DEFINITION ( 'UNKNOWN', '', #129, #35 ) ;
#133 = ORIENTED_EDGE ( 'NONE', *, *, #24, .T. ) ;
#134 = DIRECTION ( 'NONE',  ( 0.000000000000000000, 0.000000000000000000, 1.000000000000000000 ) ) ;
#135 =( GEOMETRIC_REPRESENTATION_CONTEXT ( 3 ) GLOBAL_UNCERTAINTY_ASSIGNED_CONTEXT ( ( #56 ) ) GLOBAL_UNIT_ASSIGNED_CONTEXT ( ( #88, #52, #70 ) ) REPRESENTATION_CONTEXT ( 'NONE', 'WORKASPACE' ) );
#136 = FACE_OUTER_BOUND ( 'NONE', #64, .T. ) ;
#137 = DIRECTION ( 'NONE',  ( 1.000000000000000000, 0.000000000000000000, 0.000000000000000000 ) ) ;
#138 = LINE ( 'NONE', #37, #120 ) ;
#139 =( NAMED_UNIT ( * ) PLANE_ANGLE_UNIT ( ) SI_UNIT ( $, .RADIAN. ) );
#140 = FILL_AREA_STYLE ('',( #36 ) ) ;
ENDSEC;
END-ISO-10303-21;
