ISO-10303-21;
HEADER;
FILE_DESCRIPTION (( 'STEP AP203' ),
    '1' );
FILE_NAME ('Web Model 47231_84480.step',
    '2019-01-07T15:28:08',
    ( '' ),
    ( '' ),
    'SwSTEP 2.0',
    'SolidWorks 2016',
    '' );
FILE_SCHEMA (( 'CONFIG_CONTROL_DESIGN' ));
ENDSEC;

DATA;
#1 = ORIENTED_EDGE ( 'NONE', *, *, #110, .F. ) ;
#2 = APPROVAL_PERSON_ORGANIZATION ( #15, #176, #47 ) ;
#3 = APPROVAL ( #78, 'UNSPECIFIED' ) ;
#4 = DIRECTION ( 'NONE',  ( -0.0000000000000000000, -0.0000000000000000000, -1.000000000000000000 ) ) ;
#5 = VERTEX_POINT ( 'NONE', #221 ) ;
#6 = CARTESIAN_POINT ( 'NONE',  ( -25.00000000000000400, 25.00000000000000400, 2.000000000000000000 ) ) ;
#7 = CARTESIAN_POINT ( 'NONE',  ( -25.00000000000000400, 25.00000000000000400, 2.000000000000000000 ) ) ;
#8 = VECTOR ( 'NONE', #9, 1000.000000000000000 ) ;
#9 = DIRECTION ( 'NONE',  ( -0.0000000000000000000, -1.000000000000000000, -0.0000000000000000000 ) ) ;
#10 = CARTESIAN_POINT ( 'NONE',  ( 25.00000000000000000, 25.00000000000000400, 2.000000000000000000 ) ) ;
#11 = ADVANCED_BREP_SHAPE_REPRESENTATION ( 'Web Model 47231_84480', ( #196, #164 ), #215 ) ;
#12 = DIRECTION ( 'NONE',  ( 0.0000000000000000000, 1.000000000000000000, 0.0000000000000000000 ) ) ;
#13 = CC_DESIGN_PERSON_AND_ORGANIZATION_ASSIGNMENT ( #216, #29, ( #67 ) ) ;
#14 = APPROVAL_ROLE ( '' ) ;
#15 = PERSON_AND_ORGANIZATION ( #233, #138 ) ;
#16 = VERTEX_POINT ( 'NONE', #103 ) ;
#17 = EDGE_CURVE ( 'NONE', #54, #16, #229, .T. ) ;
#18 = LINE ( 'NONE', #43, #212 ) ;
#19 = VERTEX_POINT ( 'NONE', #203 ) ;
#20 = LINE ( 'NONE', #184, #118 ) ;
#21 = AXIS2_PLACEMENT_3D ( 'NONE', #55, #89, #85 ) ;
#22 = DIRECTION ( 'NONE',  ( 0.0000000000000000000, 1.000000000000000000, 0.0000000000000000000 ) ) ;
#23 = EDGE_CURVE ( 'NONE', #165, #54, #217, .T. ) ;
#24 = CARTESIAN_POINT ( 'NONE',  ( 0.0000000000000000000, 0.0000000000000000000, -2.000000000000000000 ) ) ;
#25 = DIRECTION ( 'NONE',  ( 0.0000000000000000000, 0.0000000000000000000, 1.000000000000000000 ) ) ;
#26 = CARTESIAN_POINT ( 'NONE',  ( -25.00000000000000400, -25.00000000000000000, -2.000000000000000000 ) ) ;
#27 = PERSON_AND_ORGANIZATION ( #233, #138 ) ;
#28 = ORIENTED_EDGE ( 'NONE', *, *, #197, .T. ) ;
#29 = PERSON_AND_ORGANIZATION_ROLE ( 'design_supplier' ) ;
#30 = ORIENTED_EDGE ( 'NONE', *, *, #189, .T. ) ;
#31 = APPROVAL_DATE_TIME ( #37, #176 ) ;
#32 = SECURITY_CLASSIFICATION ( '', '', #173 ) ;
#33 = AXIS2_PLACEMENT_3D ( 'NONE', #208, #75, #25 ) ;
#34 = APPROVAL_PERSON_ORGANIZATION ( #79, #3, #14 ) ;
#35 = ORIENTED_EDGE ( 'NONE', *, *, #90, .T. ) ;
#36 = CC_DESIGN_PERSON_AND_ORGANIZATION_ASSIGNMENT ( #27, #116, ( #67 ) ) ;
#37 = DATE_AND_TIME ( #129, #235 ) ;
#38 = PLANE ( 'NONE',  #21 ) ;
#39 = DIRECTION ( 'NONE',  ( 1.000000000000000000, 0.0000000000000000000, 0.0000000000000000000 ) ) ;
#40 = VECTOR ( 'NONE', #207, 1000.000000000000000 ) ;
#41 = EDGE_LOOP ( 'NONE', ( #172, #220, #195, #199 ) ) ;
#42 = AXIS2_PLACEMENT_3D ( 'NONE', #24, #56, #144 ) ;
#43 = CARTESIAN_POINT ( 'NONE',  ( -25.00000000000000400, 25.00000000000000400, 2.000000000000000000 ) ) ;
#44 = APPROVAL_DATE_TIME ( #185, #137 ) ;
#45 = CARTESIAN_POINT ( 'NONE',  ( 25.00000000000000000, -25.00000000000000000, 2.000000000000000000 ) ) ;
#46 = CARTESIAN_POINT ( 'NONE',  ( 0.0000000000000000000, 0.0000000000000000000, 0.0000000000000000000 ) ) ;
#47 = APPROVAL_ROLE ( '' ) ;
#48 = CARTESIAN_POINT ( 'NONE',  ( 0.0000000000000000000, 0.0000000000000000000, 2.000000000000000000 ) ) ;
#49 = CALENDAR_DATE ( 2019, 7, 1 ) ;
#50 = ADVANCED_FACE ( 'NONE', ( #177 ), #163, .F. ) ;
#51 = PERSON_AND_ORGANIZATION ( #233, #138 ) ;
#52 = CC_DESIGN_APPROVAL ( #3, ( #32 ) ) ;
#53 = LINE ( 'NONE', #191, #140 ) ;
#54 = VERTEX_POINT ( 'NONE', #146 ) ;
#55 = CARTESIAN_POINT ( 'NONE',  ( -25.00000000000000400, 25.00000000000000400, 2.000000000000000000 ) ) ;
#56 = DIRECTION ( 'NONE',  ( 0.0000000000000000000, 0.0000000000000000000, -1.000000000000000000 ) ) ;
#57 = LINE ( 'NONE', #45, #40 ) ;
#58 = DIRECTION ( 'NONE',  ( 0.0000000000000000000, 0.0000000000000000000, -1.000000000000000000 ) ) ;
#59 = ADVANCED_FACE ( 'NONE', ( #115 ), #127, .T. ) ;
#60 =( LENGTH_UNIT ( ) NAMED_UNIT ( * ) SI_UNIT ( .MILLI., .METRE. ) );
#61 = CC_DESIGN_SECURITY_CLASSIFICATION ( #32, ( #67 ) ) ;
#62 = PERSON_AND_ORGANIZATION_ROLE ( 'classification_officer' ) ;
#63 = APPLICATION_PROTOCOL_DEFINITION ( 'international standard', 'config_control_design', 1994, #114 ) ;
#64 = PRODUCT ( 'Web Model 47231_84480', 'Web Model 47231_84480', '', ( #210 ) ) ;
#65 = VERTEX_POINT ( 'NONE', #166 ) ;
#66 = EDGE_LOOP ( 'NONE', ( #180, #126, #141, #117 ) ) ;
#67 = PRODUCT_DEFINITION_FORMATION_WITH_SPECIFIED_SOURCE ( 'ANY', '', #64, .NOT_KNOWN. ) ;
#68 = EDGE_CURVE ( 'NONE', #175, #54, #198, .T. ) ;
#69 = ORIENTED_EDGE ( 'NONE', *, *, #17, .T. ) ;
#70 = CALENDAR_DATE ( 2019, 7, 1 ) ;
#71 = CARTESIAN_POINT ( 'NONE',  ( 25.00000000000000000, -25.00000000000000000, 2.000000000000000000 ) ) ;
#72 = CALENDAR_DATE ( 2019, 7, 1 ) ;
#73 = ORIENTED_EDGE ( 'NONE', *, *, #68, .F. ) ;
#74 = ADVANCED_FACE ( 'NONE', ( #82 ), #38, .F. ) ;
#75 = DIRECTION ( 'NONE',  ( -1.000000000000000000, 0.0000000000000000000, 0.0000000000000000000 ) ) ;
#76 = VECTOR ( 'NONE', #170, 1000.000000000000000 ) ;
#77 = DIRECTION ( 'NONE',  ( 0.0000000000000000000, 0.0000000000000000000, 1.000000000000000000 ) ) ;
#78 = APPROVAL_STATUS ( 'not_yet_approved' ) ;
#79 = PERSON_AND_ORGANIZATION ( #233, #138 ) ;
#80 = ORIENTED_EDGE ( 'NONE', *, *, #133, .T. ) ;
#81 = EDGE_LOOP ( 'NONE', ( #80, #183, #35, #30 ) ) ;
#82 = FACE_OUTER_BOUND ( 'NONE', #186, .T. ) ;
#83 = EDGE_CURVE ( 'NONE', #19, #165, #20, .T. ) ;
#84 = APPROVAL_PERSON_ORGANIZATION ( #202, #137, #228 ) ;
#85 = DIRECTION ( 'NONE',  ( 0.0000000000000000000, -0.0000000000000000000, -1.000000000000000000 ) ) ;
#86 = DIRECTION ( 'NONE',  ( -0.0000000000000000000, -0.0000000000000000000, -1.000000000000000000 ) ) ;
#87 = LOCAL_TIME ( 10, 28, 8.000000000000000000, #145 ) ;
#88 = ORIENTED_EDGE ( 'NONE', *, *, #133, .F. ) ;
#89 = DIRECTION ( 'NONE',  ( 0.0000000000000000000, -1.000000000000000000, 0.0000000000000000000 ) ) ;
#90 = EDGE_CURVE ( 'NONE', #108, #19, #153, .T. ) ;
#91 = APPROVAL_STATUS ( 'not_yet_approved' ) ;
#92 = LINE ( 'NONE', #10, #169 ) ;
#93 = APPLICATION_PROTOCOL_DEFINITION ( 'international standard', 'config_control_design', 1994, #231 ) ;
#94 = DIRECTION ( 'NONE',  ( 1.000000000000000000, 0.0000000000000000000, 0.0000000000000000000 ) ) ;
#95 = PERSON_AND_ORGANIZATION_ROLE ( 'creator' ) ;
#96 = DIRECTION ( 'NONE',  ( -0.0000000000000000000, -0.0000000000000000000, -1.000000000000000000 ) ) ;
#97 = FACE_OUTER_BOUND ( 'NONE', #81, .T. ) ;
#98 = LINE ( 'NONE', #149, #76 ) ;
#99 = FACE_OUTER_BOUND ( 'NONE', #225, .T. ) ;
#100 = AXIS2_PLACEMENT_3D ( 'NONE', #223, #105, #124 ) ;
#101 = DATE_AND_TIME ( #156, #179 ) ;
#102 = UNCERTAINTY_MEASURE_WITH_UNIT (LENGTH_MEASURE( 1.000000000000000100E-005 ), #60, 'distance_accuracy_value', 'NONE');
#103 = CARTESIAN_POINT ( 'NONE',  ( 25.00000000000000000, 25.00000000000000400, -2.000000000000000000 ) ) ;
#104 = VECTOR ( 'NONE', #204, 1000.000000000000000 ) ;
#105 = DIRECTION ( 'NONE',  ( 1.000000000000000000, 0.0000000000000000000, 0.0000000000000000000 ) ) ;
#106 = PLANE ( 'NONE',  #33 ) ;
#107 = CARTESIAN_POINT ( 'NONE',  ( -25.00000000000000400, -25.00000000000000000, -2.000000000000000000 ) ) ;
#108 = VERTEX_POINT ( 'NONE', #6 ) ;
#109 = CARTESIAN_POINT ( 'NONE',  ( 25.00000000000000000, -25.00000000000000000, 2.000000000000000000 ) ) ;
#110 = EDGE_CURVE ( 'NONE', #5, #108, #194, .T. ) ;
#111 = ADVANCED_FACE ( 'NONE', ( #161 ), #106, .F. ) ;
#112 = COORDINATED_UNIVERSAL_TIME_OFFSET ( 5, 0, .BEHIND. ) ;
#113 = PRODUCT_DEFINITION_SHAPE ( 'NONE', 'NONE',  #155 ) ;
#114 = APPLICATION_CONTEXT ( 'configuration controlled 3d designs of mechanical parts and assemblies' ) ;
#115 = FACE_OUTER_BOUND ( 'NONE', #41, .T. ) ;
#116 = PERSON_AND_ORGANIZATION_ROLE ( 'creator' ) ;
#117 = ORIENTED_EDGE ( 'NONE', *, *, #121, .T. ) ;
#118 = VECTOR ( 'NONE', #4, 1000.000000000000000 ) ;
#119 = ORIENTED_EDGE ( 'NONE', *, *, #171, .T. ) ;
#120 = LOCAL_TIME ( 10, 28, 8.000000000000000000, #224 ) ;
#121 = EDGE_CURVE ( 'NONE', #108, #65, #18, .T. ) ;
#122 = DESIGN_CONTEXT ( 'detailed design', #114, 'design' ) ;
#123 = COORDINATED_UNIVERSAL_TIME_OFFSET ( 5, 0, .BEHIND. ) ;
#124 = DIRECTION ( 'NONE',  ( 0.0000000000000000000, 0.0000000000000000000, -1.000000000000000000 ) ) ;
#125 = DATE_AND_TIME ( #72, #120 ) ;
#126 = ORIENTED_EDGE ( 'NONE', *, *, #83, .F. ) ;
#127 = PLANE ( 'NONE',  #42 ) ;
#128 = CARTESIAN_POINT ( 'NONE',  ( -25.00000000000000400, -25.00000000000000000, 2.000000000000000000 ) ) ;
#129 = CALENDAR_DATE ( 2019, 7, 1 ) ;
#130 = ADVANCED_FACE ( 'NONE', ( #97 ), #167, .F. ) ;
#131 = ORIENTED_EDGE ( 'NONE', *, *, #189, .F. ) ;
#132 = DATE_TIME_ROLE ( 'creation_date' ) ;
#133 = EDGE_CURVE ( 'NONE', #175, #5, #57, .T. ) ;
#134 = DIRECTION ( 'NONE',  ( -1.000000000000000000, -0.0000000000000000000, -0.0000000000000000000 ) ) ;
#135 = PERSON_AND_ORGANIZATION ( #233, #138 ) ;
#136 = CLOSED_SHELL ( 'NONE', ( #111, #74, #50, #147, #130, #59 ) ) ;
#137 = APPROVAL ( #91, 'UNSPECIFIED' ) ;
#138 = ORGANIZATION ( 'UNSPECIFIED', 'UNSPECIFIED', '' ) ;
#139 = APPROVAL_DATE_TIME ( #201, #3 ) ;
#140 = VECTOR ( 'NONE', #134, 1000.000000000000000 ) ;
#141 = ORIENTED_EDGE ( 'NONE', *, *, #90, .F. ) ;
#142 = AXIS2_PLACEMENT_3D ( 'NONE', #48, #58, #151 ) ;
#143 = CC_DESIGN_PERSON_AND_ORGANIZATION_ASSIGNMENT ( #135, #209, ( #64 ) ) ;
#144 = DIRECTION ( 'NONE',  ( -1.000000000000000000, 0.0000000000000000000, -0.0000000000000000000 ) ) ;
#145 = COORDINATED_UNIVERSAL_TIME_OFFSET ( 5, 0, .BEHIND. ) ;
#146 = CARTESIAN_POINT ( 'NONE',  ( 25.00000000000000000, -25.00000000000000000, -2.000000000000000000 ) ) ;
#147 = ADVANCED_FACE ( 'NONE', ( #99 ), #152, .F. ) ;
#148 = VECTOR ( 'NONE', #192, 1000.000000000000000 ) ;
#149 = CARTESIAN_POINT ( 'NONE',  ( -25.00000000000000400, -25.00000000000000000, 2.000000000000000000 ) ) ;
#150 = CC_DESIGN_APPROVAL ( #137, ( #155 ) ) ;
#151 = DIRECTION ( 'NONE',  ( -1.000000000000000000, 0.0000000000000000000, -0.0000000000000000000 ) ) ;
#152 = PLANE ( 'NONE',  #200 ) ;
#153 = LINE ( 'NONE', #205, #104 ) ;
#154 =( NAMED_UNIT ( * ) PLANE_ANGLE_UNIT ( ) SI_UNIT ( $, .RADIAN. ) );
#155 = PRODUCT_DEFINITION ( 'UNKNOWN', '', #67, #122 ) ;
#156 = CALENDAR_DATE ( 2019, 7, 1 ) ;
#157 = CC_DESIGN_DATE_AND_TIME_ASSIGNMENT ( #125, #193, ( #32 ) ) ;
#158 = VECTOR ( 'NONE', #86, 1000.000000000000000 ) ;
#159 = ORIENTED_EDGE ( 'NONE', *, *, #68, .T. ) ;
#160 = CC_DESIGN_DATE_AND_TIME_ASSIGNMENT ( #101, #132, ( #155 ) ) ;
#161 = FACE_OUTER_BOUND ( 'NONE', #162, .T. ) ;
#162 = EDGE_LOOP ( 'NONE', ( #69, #234, #88, #159 ) ) ;
#163 = PLANE ( 'NONE',  #100 ) ;
#164 = AXIS2_PLACEMENT_3D ( 'NONE', #46, #77, #94 ) ;
#165 = VERTEX_POINT ( 'NONE', #168 ) ;
#166 = CARTESIAN_POINT ( 'NONE',  ( -25.00000000000000400, 25.00000000000000400, -2.000000000000000000 ) ) ;
#167 = PLANE ( 'NONE',  #142 ) ;
#168 = CARTESIAN_POINT ( 'NONE',  ( -25.00000000000000400, -25.00000000000000000, -2.000000000000000000 ) ) ;
#169 = VECTOR ( 'NONE', #96, 1000.000000000000000 ) ;
#170 = DIRECTION ( 'NONE',  ( 1.000000000000000000, 0.0000000000000000000, 0.0000000000000000000 ) ) ;
#171 = EDGE_CURVE ( 'NONE', #16, #65, #53, .T. ) ;
#172 = ORIENTED_EDGE ( 'NONE', *, *, #17, .F. ) ;
#173 = SECURITY_CLASSIFICATION_LEVEL ( 'unclassified' ) ;
#174 = PERSON_AND_ORGANIZATION ( #233, #138 ) ;
#175 = VERTEX_POINT ( 'NONE', #109 ) ;
#176 = APPROVAL ( #230, 'UNSPECIFIED' ) ;
#177 = FACE_OUTER_BOUND ( 'NONE', #66, .T. ) ;
#178 = VECTOR ( 'NONE', #22, 1000.000000000000000 ) ;
#179 = LOCAL_TIME ( 10, 28, 8.000000000000000000, #123 ) ;
#180 = ORIENTED_EDGE ( 'NONE', *, *, #211, .T. ) ;
#181 = CC_DESIGN_PERSON_AND_ORGANIZATION_ASSIGNMENT ( #51, #95, ( #155 ) ) ;
#182 = SHAPE_DEFINITION_REPRESENTATION ( #113, #11 ) ;
#183 = ORIENTED_EDGE ( 'NONE', *, *, #110, .T. ) ;
#184 = CARTESIAN_POINT ( 'NONE',  ( -25.00000000000000400, -25.00000000000000000, 2.000000000000000000 ) ) ;
#185 = DATE_AND_TIME ( #49, #87 ) ;
#186 = EDGE_LOOP ( 'NONE', ( #119, #214, #1, #28 ) ) ;
#187 = CARTESIAN_POINT ( 'NONE',  ( 25.00000000000000000, -25.00000000000000000, -2.000000000000000000 ) ) ;
#188 = DIRECTION ( 'NONE',  ( -0.0000000000000000000, -0.0000000000000000000, -1.000000000000000000 ) ) ;
#189 = EDGE_CURVE ( 'NONE', #19, #175, #98, .T. ) ;
#190 = COORDINATED_UNIVERSAL_TIME_OFFSET ( 5, 0, .BEHIND. ) ;
#191 = CARTESIAN_POINT ( 'NONE',  ( -25.00000000000000400, 25.00000000000000400, -2.000000000000000000 ) ) ;
#192 = DIRECTION ( 'NONE',  ( -1.000000000000000000, -0.0000000000000000000, -0.0000000000000000000 ) ) ;
#193 = DATE_TIME_ROLE ( 'classification_date' ) ;
#194 = LINE ( 'NONE', #7, #148 ) ;
#195 = ORIENTED_EDGE ( 'NONE', *, *, #211, .F. ) ;
#196 = MANIFOLD_SOLID_BREP ( 'Boss-Extrude1', #136 ) ;
#197 = EDGE_CURVE ( 'NONE', #5, #16, #92, .T. ) ;
#198 = LINE ( 'NONE', #71, #158 ) ;
#199 = ORIENTED_EDGE ( 'NONE', *, *, #171, .F. ) ;
#200 = AXIS2_PLACEMENT_3D ( 'NONE', #128, #12, #226 ) ;
#201 = DATE_AND_TIME ( #70, #237 ) ;
#202 = PERSON_AND_ORGANIZATION ( #233, #138 ) ;
#203 = CARTESIAN_POINT ( 'NONE',  ( -25.00000000000000400, -25.00000000000000000, 2.000000000000000000 ) ) ;
#204 = DIRECTION ( 'NONE',  ( -0.0000000000000000000, -1.000000000000000000, -0.0000000000000000000 ) ) ;
#205 = CARTESIAN_POINT ( 'NONE',  ( -25.00000000000000400, -25.00000000000000000, 2.000000000000000000 ) ) ;
#206 = ORIENTED_EDGE ( 'NONE', *, *, #83, .T. ) ;
#207 = DIRECTION ( 'NONE',  ( 0.0000000000000000000, 1.000000000000000000, 0.0000000000000000000 ) ) ;
#208 = CARTESIAN_POINT ( 'NONE',  ( 25.00000000000000000, -25.00000000000000000, 2.000000000000000000 ) ) ;
#209 = PERSON_AND_ORGANIZATION_ROLE ( 'design_owner' ) ;
#210 = MECHANICAL_CONTEXT ( 'NONE', #231, 'mechanical' ) ;
#211 = EDGE_CURVE ( 'NONE', #65, #165, #232, .T. ) ;
#212 = VECTOR ( 'NONE', #188, 1000.000000000000000 ) ;
#213 =( NAMED_UNIT ( * ) SI_UNIT ( $, .STERADIAN. ) SOLID_ANGLE_UNIT ( ) );
#214 = ORIENTED_EDGE ( 'NONE', *, *, #121, .F. ) ;
#215 =( GEOMETRIC_REPRESENTATION_CONTEXT ( 3 ) GLOBAL_UNCERTAINTY_ASSIGNED_CONTEXT ( ( #102 ) ) GLOBAL_UNIT_ASSIGNED_CONTEXT ( ( #60, #154, #213 ) ) REPRESENTATION_CONTEXT ( 'NONE', 'WORKASPACE' ) );
#216 = PERSON_AND_ORGANIZATION ( #233, #138 ) ;
#217 = LINE ( 'NONE', #107, #219 ) ;
#218 = ORIENTED_EDGE ( 'NONE', *, *, #23, .T. ) ;
#219 = VECTOR ( 'NONE', #39, 1000.000000000000000 ) ;
#220 = ORIENTED_EDGE ( 'NONE', *, *, #23, .F. ) ;
#221 = CARTESIAN_POINT ( 'NONE',  ( 25.00000000000000000, 25.00000000000000400, 2.000000000000000000 ) ) ;
#222 = PRODUCT_RELATED_PRODUCT_CATEGORY ( 'detail', '', ( #64 ) ) ;
#223 = CARTESIAN_POINT ( 'NONE',  ( -25.00000000000000400, -25.00000000000000000, 2.000000000000000000 ) ) ;
#224 = COORDINATED_UNIVERSAL_TIME_OFFSET ( 5, 0, .BEHIND. ) ;
#225 = EDGE_LOOP ( 'NONE', ( #218, #73, #131, #206 ) ) ;
#226 = DIRECTION ( 'NONE',  ( 0.0000000000000000000, -0.0000000000000000000, 1.000000000000000000 ) ) ;
#227 = CC_DESIGN_APPROVAL ( #176, ( #67 ) ) ;
#228 = APPROVAL_ROLE ( '' ) ;
#229 = LINE ( 'NONE', #187, #178 ) ;
#230 = APPROVAL_STATUS ( 'not_yet_approved' ) ;
#231 = APPLICATION_CONTEXT ( 'configuration controlled 3d designs of mechanical parts and assemblies' ) ;
#232 = LINE ( 'NONE', #26, #8 ) ;
#233 = PERSON ( 'UNSPECIFIED', 'UNSPECIFIED', 'UNSPECIFIED', ('UNSPECIFIED'), ('UNSPECIFIED'), ('UNSPECIFIED') ) ;
#234 = ORIENTED_EDGE ( 'NONE', *, *, #197, .F. ) ;
#235 = LOCAL_TIME ( 10, 28, 8.000000000000000000, #190 ) ;
#236 = CC_DESIGN_PERSON_AND_ORGANIZATION_ASSIGNMENT ( #174, #62, ( #32 ) ) ;
#237 = LOCAL_TIME ( 10, 28, 8.000000000000000000, #112 ) ;
ENDSEC;
END-ISO-10303-21;
