ISO-10303-21;
HEADER;
FILE_DESCRIPTION (( 'STEP AP203' ),
    '1' );
FILE_NAME ('Web Model 46459_15984.step',
    '2020-10-09T14:04:15',
    ( '' ),
    ( '' ),
    'SwSTEP 2.0',
    'SolidWorks 2018',
    '' );
FILE_SCHEMA (( 'CONFIG_CONTROL_DESIGN' ));
ENDSEC;

DATA;
#1 = ORIENTED_EDGE ( 'NONE', *, *, #69, .T. ) ;
#2 = AXIS2_PLACEMENT_3D ( 'NONE', #127, #64, #126 ) ;
#3 = CALENDAR_DATE ( 2020, 9, 10 ) ;
#4 = VECTOR ( 'NONE', #125, 1000.000000000000000 ) ;
#5 = VERTEX_POINT ( 'NONE', #27 ) ;
#6 = APPROVAL ( #15, 'UNSPECIFIED' ) ;
#7 = EDGE_CURVE ( 'NONE', #177, #5, #153, .T. ) ;
#8 = CALENDAR_DATE ( 2020, 9, 10 ) ;
#9 = ORIENTED_EDGE ( 'NONE', *, *, #205, .F. ) ;
#10 = AXIS2_PLACEMENT_3D ( 'NONE', #231, #102, #34 ) ;
#11 = CARTESIAN_POINT ( 'NONE',  ( 0.7500000000000000000, 12.69999999999999751, -12.69999999999999929 ) ) ;
#12 = DIRECTION ( 'NONE',  ( 0.0000000000000000000, -0.0000000000000000000, 1.000000000000000000 ) ) ;
#13 = PERSON_AND_ORGANIZATION_ROLE ( 'design_supplier' ) ;
#14 = APPROVAL_PERSON_ORGANIZATION ( #155, #115, #234 ) ;
#15 = APPROVAL_STATUS ( 'not_yet_approved' ) ;
#16 = CARTESIAN_POINT ( 'NONE',  ( -0.7500000000000000000, 12.69999999999999751, 12.69999999999999929 ) ) ;
#17 = VERTEX_POINT ( 'NONE', #154 ) ;
#18 = CC_DESIGN_PERSON_AND_ORGANIZATION_ASSIGNMENT ( #179, #112, ( #106 ) ) ;
#19 = VECTOR ( 'NONE', #89, 1000.000000000000000 ) ;
#20 = COORDINATED_UNIVERSAL_TIME_OFFSET ( 5, 0, .BEHIND. ) ;
#21 = VECTOR ( 'NONE', #108, 1000.000000000000000 ) ;
#22 = ORIENTED_EDGE ( 'NONE', *, *, #211, .F. ) ;
#23 = AXIS2_PLACEMENT_3D ( 'NONE', #84, #212, #12 ) ;
#24 = LINE ( 'NONE', #215, #4 ) ;
#25 = ORIENTED_EDGE ( 'NONE', *, *, #124, .F. ) ;
#26 = ORIENTED_EDGE ( 'NONE', *, *, #124, .T. ) ;
#27 = CARTESIAN_POINT ( 'NONE',  ( -0.7500000000000000000, 12.69999999999999751, -12.69999999999999929 ) ) ;
#28 = PERSON_AND_ORGANIZATION ( #54, #96 ) ;
#29 = CARTESIAN_POINT ( 'NONE',  ( 0.7500000000000000000, 12.69999999999999751, -12.69999999999999929 ) ) ;
#30 = CC_DESIGN_PERSON_AND_ORGANIZATION_ASSIGNMENT ( #62, #165, ( #184 ) ) ;
#31 = ORIENTED_EDGE ( 'NONE', *, *, #7, .T. ) ;
#32 = CARTESIAN_POINT ( 'NONE',  ( -0.7500000000000000000, -12.70000000000000107, 12.70000000000000462 ) ) ;
#33 = SHAPE_DEFINITION_REPRESENTATION ( #46, #147 ) ;
#34 = DIRECTION ( 'NONE',  ( 0.0000000000000000000, -1.000000000000000000, -2.048885995248197414E-16 ) ) ;
#35 = PERSON_AND_ORGANIZATION ( #54, #96 ) ;
#36 = EDGE_CURVE ( 'NONE', #181, #5, #45, .T. ) ;
#37 = CARTESIAN_POINT ( 'NONE',  ( 0.7500000000000000000, 12.69999999999999751, 12.69999999999999929 ) ) ;
#38 = LINE ( 'NONE', #157, #226 ) ;
#39 = EDGE_LOOP ( 'NONE', ( #31, #57, #25, #101 ) ) ;
#40 = APPLICATION_PROTOCOL_DEFINITION ( 'international standard', 'config_control_design', 1994, #143 ) ;
#41 = CARTESIAN_POINT ( 'NONE',  ( 0.0000000000000000000, 0.0000000000000000000, 0.0000000000000000000 ) ) ;
#42 = DATE_AND_TIME ( #175, #225 ) ;
#43 = ORIENTED_EDGE ( 'NONE', *, *, #230, .T. ) ;
#44 = VERTEX_POINT ( 'NONE', #32 ) ;
#45 = LINE ( 'NONE', #118, #202 ) ;
#46 = PRODUCT_DEFINITION_SHAPE ( 'NONE', 'NONE',  #106 ) ;
#47 = EDGE_CURVE ( 'NONE', #138, #80, #197, .T. ) ;
#48 = DIRECTION ( 'NONE',  ( -0.0000000000000000000, 1.000000000000000000, 2.048885995248197414E-16 ) ) ;
#49 = ORIENTED_EDGE ( 'NONE', *, *, #100, .F. ) ;
#50 = PLANE ( 'NONE',  #23 ) ;
#51 = DIRECTION ( 'NONE',  ( -1.000000000000000000, -0.0000000000000000000, -0.0000000000000000000 ) ) ;
#52 = LOCAL_TIME ( 10, 4, 15.00000000000000000, #191 ) ;
#53 = CARTESIAN_POINT ( 'NONE',  ( -0.7500000000000000000, 0.0000000000000000000, 0.0000000000000000000 ) ) ;
#54 = PERSON ( 'UNSPECIFIED', 'UNSPECIFIED', 'UNSPECIFIED', ('UNSPECIFIED'), ('UNSPECIFIED'), ('UNSPECIFIED') ) ;
#55 = APPROVAL_STATUS ( 'not_yet_approved' ) ;
#56 = MECHANICAL_CONTEXT ( 'NONE', #130, 'mechanical' ) ;
#57 = ORIENTED_EDGE ( 'NONE', *, *, #36, .F. ) ;
#58 = VECTOR ( 'NONE', #87, 1000.000000000000000 ) ;
#59 = COORDINATED_UNIVERSAL_TIME_OFFSET ( 5, 0, .BEHIND. ) ;
#60 = EDGE_LOOP ( 'NONE', ( #142, #98, #9, #214 ) ) ;
#61 = CC_DESIGN_APPROVAL ( #115, ( #184 ) ) ;
#62 = PERSON_AND_ORGANIZATION ( #54, #96 ) ;
#63 = DIRECTION ( 'NONE',  ( -1.000000000000000000, -0.0000000000000000000, -0.0000000000000000000 ) ) ;
#64 = DIRECTION ( 'NONE',  ( 0.0000000000000000000, -2.048885995248197414E-16, -1.000000000000000000 ) ) ;
#65 = CC_DESIGN_PERSON_AND_ORGANIZATION_ASSIGNMENT ( #189, #203, ( #135 ) ) ;
#66 = DIRECTION ( 'NONE',  ( -0.0000000000000000000, -0.0000000000000000000, 1.000000000000000000 ) ) ;
#67 = PLANE ( 'NONE',  #2 ) ;
#68 = DIRECTION ( 'NONE',  ( 1.000000000000000000, 0.0000000000000000000, 0.0000000000000000000 ) ) ;
#69 = EDGE_CURVE ( 'NONE', #91, #17, #105, .T. ) ;
#70 = FACE_OUTER_BOUND ( 'NONE', #137, .T. ) ;
#71 =( NAMED_UNIT ( * ) PLANE_ANGLE_UNIT ( ) SI_UNIT ( $, .RADIAN. ) );
#72 = APPLICATION_PROTOCOL_DEFINITION ( 'international standard', 'config_control_design', 1994, #130 ) ;
#73 = AXIS2_PLACEMENT_3D ( 'NONE', #196, #233, #85 ) ;
#74 = PRODUCT_RELATED_PRODUCT_CATEGORY ( 'detail', '', ( #135 ) ) ;
#75 = LINE ( 'NONE', #162, #219 ) ;
#76 = ORIENTED_EDGE ( 'NONE', *, *, #47, .F. ) ;
#77 = APPROVAL ( #170, 'UNSPECIFIED' ) ;
#78 = DATE_AND_TIME ( #3, #52 ) ;
#79 = VECTOR ( 'NONE', #216, 1000.000000000000000 ) ;
#80 = VERTEX_POINT ( 'NONE', #161 ) ;
#81 = ORIENTED_EDGE ( 'NONE', *, *, #221, .T. ) ;
#82 = DIRECTION ( 'NONE',  ( 0.0000000000000000000, 0.0000000000000000000, -1.000000000000000000 ) ) ;
#83 = PLANE ( 'NONE',  #148 ) ;
#84 = CARTESIAN_POINT ( 'NONE',  ( 0.7500000000000000000, -12.70000000000000107, 12.70000000000000462 ) ) ;
#85 = DIRECTION ( 'NONE',  ( 0.0000000000000000000, -0.0000000000000000000, -1.000000000000000000 ) ) ;
#86 = VECTOR ( 'NONE', #48, 1000.000000000000000 ) ;
#87 = DIRECTION ( 'NONE',  ( -1.000000000000000000, -0.0000000000000000000, -0.0000000000000000000 ) ) ;
#88 = CC_DESIGN_PERSON_AND_ORGANIZATION_ASSIGNMENT ( #28, #13, ( #223 ) ) ;
#89 = DIRECTION ( 'NONE',  ( 0.0000000000000000000, -1.000000000000000000, 2.048885995248197414E-16 ) ) ;
#90 = LOCAL_TIME ( 10, 4, 15.00000000000000000, #140 ) ;
#91 = VERTEX_POINT ( 'NONE', #37 ) ;
#92 = SECURITY_CLASSIFICATION_LEVEL ( 'unclassified' ) ;
#93 = ADVANCED_FACE ( 'NONE', ( #151 ), #67, .F. ) ;
#94 = CC_DESIGN_SECURITY_CLASSIFICATION ( #184, ( #223 ) ) ;
#95 = ADVANCED_FACE ( 'NONE', ( #176 ), #107, .F. ) ;
#96 = ORGANIZATION ( 'UNSPECIFIED', 'UNSPECIFIED', '' ) ;
#97 = CC_DESIGN_APPROVAL ( #77, ( #223 ) ) ;
#98 = ORIENTED_EDGE ( 'NONE', *, *, #69, .F. ) ;
#99 = FACE_OUTER_BOUND ( 'NONE', #117, .T. ) ;
#100 = EDGE_CURVE ( 'NONE', #138, #44, #38, .T. ) ;
#101 = ORIENTED_EDGE ( 'NONE', *, *, #178, .T. ) ;
#102 = DIRECTION ( 'NONE',  ( 0.0000000000000000000, -2.048885995248197414E-16, 1.000000000000000000 ) ) ;
#103 = CALENDAR_DATE ( 2020, 9, 10 ) ;
#104 = LINE ( 'NONE', #16, #19 ) ;
#105 = LINE ( 'NONE', #182, #58 ) ;
#106 = PRODUCT_DEFINITION ( 'UNKNOWN', '', #223, #206 ) ;
#107 = PLANE ( 'NONE',  #10 ) ;
#108 = DIRECTION ( 'NONE',  ( -0.0000000000000000000, 1.000000000000000000, 2.048885995248197414E-16 ) ) ;
#109 =( LENGTH_UNIT ( ) NAMED_UNIT ( * ) SI_UNIT ( .MILLI., .METRE. ) );
#110 = VECTOR ( 'NONE', #180, 1000.000000000000000 ) ;
#111 = CLOSED_SHELL ( 'NONE', ( #93, #114, #95, #149, #224, #172 ) ) ;
#112 = PERSON_AND_ORGANIZATION_ROLE ( 'creator' ) ;
#113 = EDGE_CURVE ( 'NONE', #5, #17, #75, .T. ) ;
#114 = ADVANCED_FACE ( 'NONE', ( #70 ), #50, .F. ) ;
#115 = APPROVAL ( #55, 'UNSPECIFIED' ) ;
#116 = CC_DESIGN_DATE_AND_TIME_ASSIGNMENT ( #208, #131, ( #184 ) ) ;
#117 = EDGE_LOOP ( 'NONE', ( #204, #227, #210, #22 ) ) ;
#118 = CARTESIAN_POINT ( 'NONE',  ( 0.7500000000000000000, 12.69999999999999751, -12.69999999999999929 ) ) ;
#119 = LINE ( 'NONE', #11, #21 ) ;
#120 = EDGE_LOOP ( 'NONE', ( #43, #49, #194, #1 ) ) ;
#121 = APPROVAL_DATE_TIME ( #207, #115 ) ;
#122 = APPROVAL_PERSON_ORGANIZATION ( #35, #77, #169 ) ;
#123 = DIRECTION ( 'NONE',  ( 0.0000000000000000000, 0.0000000000000000000, -1.000000000000000000 ) ) ;
#124 = EDGE_CURVE ( 'NONE', #80, #181, #119, .T. ) ;
#125 = DIRECTION ( 'NONE',  ( 0.0000000000000000000, -1.000000000000000000, 2.048885995248197414E-16 ) ) ;
#126 = DIRECTION ( 'NONE',  ( 0.0000000000000000000, 1.000000000000000000, -2.048885995248197414E-16 ) ) ;
#127 = CARTESIAN_POINT ( 'NONE',  ( 0.7500000000000000000, 12.69999999999999751, 12.69999999999999929 ) ) ;
#128 = DIRECTION ( 'NONE',  ( -1.000000000000000000, -0.0000000000000000000, -0.0000000000000000000 ) ) ;
#129 = ORIENTED_EDGE ( 'NONE', *, *, #211, .T. ) ;
#130 = APPLICATION_CONTEXT ( 'configuration controlled 3d designs of mechanical parts and assemblies' ) ;
#131 = DATE_TIME_ROLE ( 'classification_date' ) ;
#132 = APPROVAL_DATE_TIME ( #42, #77 ) ;
#133 = ORIENTED_EDGE ( 'NONE', *, *, #205, .T. ) ;
#134 = LINE ( 'NONE', #183, #213 ) ;
#135 = PRODUCT ( 'Web Model 46459_15984', 'Web Model 46459_15984', '', ( #56 ) ) ;
#136 = EDGE_LOOP ( 'NONE', ( #81, #167, #26, #133 ) ) ;
#137 = EDGE_LOOP ( 'NONE', ( #129, #220, #76, #146 ) ) ;
#138 = VERTEX_POINT ( 'NONE', #217 ) ;
#139 = CARTESIAN_POINT ( 'NONE',  ( 0.7500000000000000000, -12.70000000000000107, 12.70000000000000462 ) ) ;
#140 = COORDINATED_UNIVERSAL_TIME_OFFSET ( 5, 0, .BEHIND. ) ;
#141 = COORDINATED_UNIVERSAL_TIME_OFFSET ( 5, 0, .BEHIND. ) ;
#142 = ORIENTED_EDGE ( 'NONE', *, *, #113, .T. ) ;
#143 = APPLICATION_CONTEXT ( 'configuration controlled 3d designs of mechanical parts and assemblies' ) ;
#144 = LINE ( 'NONE', #199, #193 ) ;
#145 = CC_DESIGN_DATE_AND_TIME_ASSIGNMENT ( #78, #185, ( #106 ) ) ;
#146 = ORIENTED_EDGE ( 'NONE', *, *, #100, .T. ) ;
#147 = ADVANCED_BREP_SHAPE_REPRESENTATION ( 'Web Model 46459_15984', ( #192, #173 ), #158 ) ;
#148 = AXIS2_PLACEMENT_3D ( 'NONE', #53, #186, #123 ) ;
#149 = ADVANCED_FACE ( 'NONE', ( #209 ), #218, .F. ) ;
#150 = DATE_AND_TIME ( #103, #152 ) ;
#151 = FACE_OUTER_BOUND ( 'NONE', #120, .T. ) ;
#152 = LOCAL_TIME ( 10, 4, 15.00000000000000000, #20 ) ;
#153 = LINE ( 'NONE', #195, #86 ) ;
#154 = CARTESIAN_POINT ( 'NONE',  ( -0.7500000000000000000, 12.69999999999999751, 12.69999999999999929 ) ) ;
#155 = PERSON_AND_ORGANIZATION ( #54, #96 ) ;
#156 = CARTESIAN_POINT ( 'NONE',  ( 0.7500000000000000000, 12.69999999999999751, 12.69999999999999929 ) ) ;
#157 = CARTESIAN_POINT ( 'NONE',  ( 0.7500000000000000000, -12.70000000000000107, 12.70000000000000462 ) ) ;
#158 =( GEOMETRIC_REPRESENTATION_CONTEXT ( 3 ) GLOBAL_UNCERTAINTY_ASSIGNED_CONTEXT ( ( #171 ) ) GLOBAL_UNIT_ASSIGNED_CONTEXT ( ( #109, #71, #236 ) ) REPRESENTATION_CONTEXT ( 'NONE', 'WORKASPACE' ) );
#159 = FACE_OUTER_BOUND ( 'NONE', #136, .T. ) ;
#160 = CARTESIAN_POINT ( 'NONE',  ( 0.7500000000000000000, 0.0000000000000000000, 0.0000000000000000000 ) ) ;
#161 = CARTESIAN_POINT ( 'NONE',  ( 0.7500000000000000000, -12.70000000000000107, -12.70000000000000462 ) ) ;
#162 = CARTESIAN_POINT ( 'NONE',  ( -0.7500000000000000000, 12.69999999999999751, 12.69999999999999929 ) ) ;
#163 = PERSON_AND_ORGANIZATION ( #54, #96 ) ;
#164 = DIRECTION ( 'NONE',  ( 1.000000000000000000, 0.0000000000000000000, 0.0000000000000000000 ) ) ;
#165 = PERSON_AND_ORGANIZATION_ROLE ( 'classification_officer' ) ;
#166 = LINE ( 'NONE', #156, #110 ) ;
#167 = ORIENTED_EDGE ( 'NONE', *, *, #47, .T. ) ;
#168 = DIRECTION ( 'NONE',  ( 0.0000000000000000000, 0.0000000000000000000, 1.000000000000000000 ) ) ;
#169 = APPROVAL_ROLE ( '' ) ;
#170 = APPROVAL_STATUS ( 'not_yet_approved' ) ;
#171 = UNCERTAINTY_MEASURE_WITH_UNIT (LENGTH_MEASURE( 1.000000000000000082E-05 ), #109, 'distance_accuracy_value', 'NONE');
#172 = ADVANCED_FACE ( 'NONE', ( #99 ), #83, .F. ) ;
#173 = AXIS2_PLACEMENT_3D ( 'NONE', #41, #168, #164 ) ;
#174 = APPROVAL_DATE_TIME ( #150, #6 ) ;
#175 = CALENDAR_DATE ( 2020, 9, 10 ) ;
#176 = FACE_OUTER_BOUND ( 'NONE', #39, .T. ) ;
#177 = VERTEX_POINT ( 'NONE', #235 ) ;
#178 = EDGE_CURVE ( 'NONE', #80, #177, #144, .T. ) ;
#179 = PERSON_AND_ORGANIZATION ( #54, #96 ) ;
#180 = DIRECTION ( 'NONE',  ( -0.0000000000000000000, -0.0000000000000000000, 1.000000000000000000 ) ) ;
#181 = VERTEX_POINT ( 'NONE', #29 ) ;
#182 = CARTESIAN_POINT ( 'NONE',  ( 0.7500000000000000000, 12.69999999999999751, 12.69999999999999929 ) ) ;
#183 = CARTESIAN_POINT ( 'NONE',  ( -0.7500000000000000000, -12.70000000000000107, 12.70000000000000462 ) ) ;
#184 = SECURITY_CLASSIFICATION ( '', '', #92 ) ;
#185 = DATE_TIME_ROLE ( 'creation_date' ) ;
#186 = DIRECTION ( 'NONE',  ( 1.000000000000000000, 0.0000000000000000000, 0.0000000000000000000 ) ) ;
#187 = CC_DESIGN_PERSON_AND_ORGANIZATION_ASSIGNMENT ( #163, #200, ( #223 ) ) ;
#188 = AXIS2_PLACEMENT_3D ( 'NONE', #160, #68, #222 ) ;
#189 = PERSON_AND_ORGANIZATION ( #54, #96 ) ;
#190 = CC_DESIGN_APPROVAL ( #6, ( #106 ) ) ;
#191 = COORDINATED_UNIVERSAL_TIME_OFFSET ( 5, 0, .BEHIND. ) ;
#192 = MANIFOLD_SOLID_BREP ( 'Boss-Extrude1', #111 ) ;
#193 = VECTOR ( 'NONE', #128, 1000.000000000000000 ) ;
#194 = ORIENTED_EDGE ( 'NONE', *, *, #221, .F. ) ;
#195 = CARTESIAN_POINT ( 'NONE',  ( -0.7500000000000000000, 12.69999999999999751, -12.69999999999999929 ) ) ;
#196 = CARTESIAN_POINT ( 'NONE',  ( 0.7500000000000000000, 12.69999999999999751, 12.69999999999999929 ) ) ;
#197 = LINE ( 'NONE', #139, #79 ) ;
#198 = APPROVAL_ROLE ( '' ) ;
#199 = CARTESIAN_POINT ( 'NONE',  ( 0.7500000000000000000, -12.70000000000000107, -12.70000000000000462 ) ) ;
#200 = PERSON_AND_ORGANIZATION_ROLE ( 'creator' ) ;
#201 = CALENDAR_DATE ( 2020, 9, 10 ) ;
#202 = VECTOR ( 'NONE', #63, 1000.000000000000000 ) ;
#203 = PERSON_AND_ORGANIZATION_ROLE ( 'design_owner' ) ;
#204 = ORIENTED_EDGE ( 'NONE', *, *, #230, .F. ) ;
#205 = EDGE_CURVE ( 'NONE', #181, #91, #166, .T. ) ;
#206 = DESIGN_CONTEXT ( 'detailed design', #143, 'design' ) ;
#207 = DATE_AND_TIME ( #201, #90 ) ;
#208 = DATE_AND_TIME ( #8, #237 ) ;
#209 = FACE_OUTER_BOUND ( 'NONE', #60, .T. ) ;
#210 = ORIENTED_EDGE ( 'NONE', *, *, #7, .F. ) ;
#211 = EDGE_CURVE ( 'NONE', #44, #177, #134, .T. ) ;
#212 = DIRECTION ( 'NONE',  ( -0.0000000000000000000, 1.000000000000000000, 0.0000000000000000000 ) ) ;
#213 = VECTOR ( 'NONE', #82, 1000.000000000000000 ) ;
#214 = ORIENTED_EDGE ( 'NONE', *, *, #36, .T. ) ;
#215 = CARTESIAN_POINT ( 'NONE',  ( 0.7500000000000000000, 12.69999999999999751, 12.69999999999999929 ) ) ;
#216 = DIRECTION ( 'NONE',  ( 0.0000000000000000000, 0.0000000000000000000, -1.000000000000000000 ) ) ;
#217 = CARTESIAN_POINT ( 'NONE',  ( 0.7500000000000000000, -12.70000000000000107, 12.70000000000000462 ) ) ;
#218 = PLANE ( 'NONE',  #73 ) ;
#219 = VECTOR ( 'NONE', #66, 1000.000000000000000 ) ;
#220 = ORIENTED_EDGE ( 'NONE', *, *, #178, .F. ) ;
#221 = EDGE_CURVE ( 'NONE', #91, #138, #24, .T. ) ;
#222 = DIRECTION ( 'NONE',  ( 0.0000000000000000000, 0.0000000000000000000, -1.000000000000000000 ) ) ;
#223 = PRODUCT_DEFINITION_FORMATION_WITH_SPECIFIED_SOURCE ( 'ANY', '', #135, .NOT_KNOWN. ) ;
#224 = ADVANCED_FACE ( 'NONE', ( #159 ), #232, .T. ) ;
#225 = LOCAL_TIME ( 10, 4, 15.00000000000000000, #141 ) ;
#226 = VECTOR ( 'NONE', #51, 1000.000000000000000 ) ;
#227 = ORIENTED_EDGE ( 'NONE', *, *, #113, .F. ) ;
#228 = APPROVAL_PERSON_ORGANIZATION ( #229, #6, #198 ) ;
#229 = PERSON_AND_ORGANIZATION ( #54, #96 ) ;
#230 = EDGE_CURVE ( 'NONE', #17, #44, #104, .T. ) ;
#231 = CARTESIAN_POINT ( 'NONE',  ( 0.7500000000000000000, 12.69999999999999751, -12.69999999999999929 ) ) ;
#232 = PLANE ( 'NONE',  #188 ) ;
#233 = DIRECTION ( 'NONE',  ( 0.0000000000000000000, -1.000000000000000000, 0.0000000000000000000 ) ) ;
#234 = APPROVAL_ROLE ( '' ) ;
#235 = CARTESIAN_POINT ( 'NONE',  ( -0.7500000000000000000, -12.70000000000000107, -12.70000000000000462 ) ) ;
#236 =( NAMED_UNIT ( * ) SI_UNIT ( $, .STERADIAN. ) SOLID_ANGLE_UNIT ( ) );
#237 = LOCAL_TIME ( 10, 4, 15.00000000000000000, #59 ) ;
ENDSEC;
END-ISO-10303-21;
