ISO-10303-21;
HEADER;
FILE_DESCRIPTION (( 'STEP AP203' ),
    '1' );
FILE_NAME ('Web Model 37689_37719.step',
    '2018-08-03T18:46:26',
    ( '' ),
    ( '' ),
    'SwSTEP 2.0',
    'SolidWorks 2016',
    '' );
FILE_SCHEMA (( 'CONFIG_CONTROL_DESIGN' ));
ENDSEC;

DATA;
#1 = CARTESIAN_POINT ( 'NONE',  ( 0.0000000000000000000, 0.0000000000000000000, -3.174999999999999800 ) ) ;
#2 = EDGE_CURVE ( 'NONE', #90, #101, #160, .T. ) ;
#3 = APPLICATION_CONTEXT ( 'configuration controlled 3d designs of mechanical parts and assemblies' ) ;
#4 = EDGE_CURVE ( 'NONE', #26, #114, #136, .T. ) ;
#5 = APPROVAL_ROLE ( '' ) ;
#6 = APPROVAL_STATUS ( 'not_yet_approved' ) ;
#7 = COORDINATED_UNIVERSAL_TIME_OFFSET ( 5, 0, .BEHIND. ) ;
#8 = CIRCLE ( 'NONE', #151, 12.69999999999999900 ) ;
#9 = CC_DESIGN_SECURITY_CLASSIFICATION ( #153, ( #63 ) ) ;
#10 = APPROVAL_PERSON_ORGANIZATION ( #83, #55, #33 ) ;
#11 = AXIS2_PLACEMENT_3D ( 'NONE', #93, #19, #66 ) ;
#12 = PERSON_AND_ORGANIZATION ( #111, #113 ) ;
#13 = DIRECTION ( 'NONE',  ( -1.000000000000000000, 0.0000000000000000000, 0.0000000000000000000 ) ) ;
#14 = APPLICATION_PROTOCOL_DEFINITION ( 'international standard', 'config_control_design', 1994, #3 ) ;
#15 = EDGE_CURVE ( 'NONE', #101, #90, #8, .T. ) ;
#16 = MECHANICAL_CONTEXT ( 'NONE', #3, 'mechanical' ) ;
#17 = DIRECTION ( 'NONE',  ( 1.000000000000000000, 0.0000000000000000000, 0.0000000000000000000 ) ) ;
#18 = PLANE ( 'NONE',  #105 ) ;
#19 = DIRECTION ( 'NONE',  ( 0.0000000000000000000, 0.0000000000000000000, 1.000000000000000000 ) ) ;
#20 = APPROVAL_ROLE ( '' ) ;
#21 = ADVANCED_BREP_SHAPE_REPRESENTATION ( 'Web Model 37689_37719', ( #36, #141 ), #68 ) ;
#22 = DATE_AND_TIME ( #112, #48 ) ;
#23 = LINE ( 'NONE', #71, #75 ) ;
#24 = ADVANCED_FACE ( 'NONE', ( #115 ), #18, .F. ) ;
#25 = COORDINATED_UNIVERSAL_TIME_OFFSET ( 5, 0, .BEHIND. ) ;
#26 = VERTEX_POINT ( 'NONE', #156 ) ;
#27 = EDGE_CURVE ( 'NONE', #114, #26, #129, .T. ) ;
#28 = DIRECTION ( 'NONE',  ( 0.0000000000000000000, 0.0000000000000000000, 1.000000000000000000 ) ) ;
#29 = DIRECTION ( 'NONE',  ( 1.000000000000000000, 0.0000000000000000000, 0.0000000000000000000 ) ) ;
#30 = CARTESIAN_POINT ( 'NONE',  ( -12.69999999999999900, 0.0000000000000000000, 3.174999999999999800 ) ) ;
#31 = PRODUCT_DEFINITION_SHAPE ( 'NONE', 'NONE',  #45 ) ;
#32 = DIRECTION ( 'NONE',  ( -0.0000000000000000000, -0.0000000000000000000, -1.000000000000000000 ) ) ;
#33 = APPROVAL_ROLE ( '' ) ;
#34 = DIRECTION ( 'NONE',  ( 0.0000000000000000000, 0.0000000000000000000, 1.000000000000000000 ) ) ;
#35 = COORDINATED_UNIVERSAL_TIME_OFFSET ( 5, 0, .BEHIND. ) ;
#36 = MANIFOLD_SOLID_BREP ( 'Boss-Extrude1', #159 ) ;
#37 = EDGE_CURVE ( 'NONE', #90, #114, #23, .T. ) ;
#38 = ADVANCED_FACE ( 'NONE', ( #98 ), #123, .T. ) ;
#39 =( LENGTH_UNIT ( ) NAMED_UNIT ( * ) SI_UNIT ( .MILLI., .METRE. ) );
#40 = ORIENTED_EDGE ( 'NONE', *, *, #96, .F. ) ;
#41 = AXIS2_PLACEMENT_3D ( 'NONE', #73, #154, #139 ) ;
#42 = CALENDAR_DATE ( 2018, 3, 8 ) ;
#43 = APPROVAL_STATUS ( 'not_yet_approved' ) ;
#44 = APPLICATION_CONTEXT ( 'configuration controlled 3d designs of mechanical parts and assemblies' ) ;
#45 = PRODUCT_DEFINITION ( 'UNKNOWN', '', #63, #138 ) ;
#46 = DATE_AND_TIME ( #42, #56 ) ;
#47 = FACE_OUTER_BOUND ( 'NONE', #164, .T. ) ;
#48 = LOCAL_TIME ( 14, 46, 26.00000000000000000, #25 ) ;
#49 = AXIS2_PLACEMENT_3D ( 'NONE', #1, #69, #17 ) ;
#50 =( NAMED_UNIT ( * ) SI_UNIT ( $, .STERADIAN. ) SOLID_ANGLE_UNIT ( ) );
#51 = CC_DESIGN_PERSON_AND_ORGANIZATION_ASSIGNMENT ( #80, #155, ( #63 ) ) ;
#52 = CARTESIAN_POINT ( 'NONE',  ( 0.0000000000000000000, 0.0000000000000000000, 3.174999999999999800 ) ) ;
#53 = CARTESIAN_POINT ( 'NONE',  ( 12.69999999999999900, 1.555301434917138400E-015, -3.174999999999999800 ) ) ;
#54 = VECTOR ( 'NONE', #32, 1000.000000000000000 ) ;
#55 = APPROVAL ( #59, 'UNSPECIFIED' ) ;
#56 = LOCAL_TIME ( 14, 46, 26.00000000000000000, #150 ) ;
#57 = DIRECTION ( 'NONE',  ( 1.000000000000000000, 0.0000000000000000000, -0.0000000000000000000 ) ) ;
#58 = ORIENTED_EDGE ( 'NONE', *, *, #15, .T. ) ;
#59 = APPROVAL_STATUS ( 'not_yet_approved' ) ;
#60 = APPROVAL_PERSON_ORGANIZATION ( #12, #79, #5 ) ;
#61 = ORIENTED_EDGE ( 'NONE', *, *, #4, .T. ) ;
#62 = LOCAL_TIME ( 14, 46, 26.00000000000000000, #35 ) ;
#63 = PRODUCT_DEFINITION_FORMATION_WITH_SPECIFIED_SOURCE ( 'ANY', '', #95, .NOT_KNOWN. ) ;
#64 = ORIENTED_EDGE ( 'NONE', *, *, #27, .F. ) ;
#65 = CALENDAR_DATE ( 2018, 3, 8 ) ;
#66 = DIRECTION ( 'NONE',  ( 1.000000000000000000, 0.0000000000000000000, 0.0000000000000000000 ) ) ;
#67 = DIRECTION ( 'NONE',  ( -1.000000000000000000, 0.0000000000000000000, 0.0000000000000000000 ) ) ;
#68 =( GEOMETRIC_REPRESENTATION_CONTEXT ( 3 ) GLOBAL_UNCERTAINTY_ASSIGNED_CONTEXT ( ( #81 ) ) GLOBAL_UNIT_ASSIGNED_CONTEXT ( ( #39, #152, #50 ) ) REPRESENTATION_CONTEXT ( 'NONE', 'WORKASPACE' ) );
#69 = DIRECTION ( 'NONE',  ( 0.0000000000000000000, 0.0000000000000000000, 1.000000000000000000 ) ) ;
#70 = PERSON_AND_ORGANIZATION_ROLE ( 'classification_officer' ) ;
#71 = CARTESIAN_POINT ( 'NONE',  ( 12.69999999999999900, 1.555301434917138400E-015, 3.174999999999999800 ) ) ;
#72 = APPROVAL_PERSON_ORGANIZATION ( #100, #137, #20 ) ;
#73 = CARTESIAN_POINT ( 'NONE',  ( 0.0000000000000000000, 0.0000000000000000000, -3.174999999999999800 ) ) ;
#74 = SECURITY_CLASSIFICATION_LEVEL ( 'unclassified' ) ;
#75 = VECTOR ( 'NONE', #119, 1000.000000000000000 ) ;
#76 = APPROVAL_DATE_TIME ( #162, #137 ) ;
#77 = EDGE_LOOP ( 'NONE', ( #92, #168, #174, #61 ) ) ;
#78 = APPROVAL_DATE_TIME ( #22, #55 ) ;
#79 = APPROVAL ( #6, 'UNSPECIFIED' ) ;
#80 = PERSON_AND_ORGANIZATION ( #111, #113 ) ;
#81 = UNCERTAINTY_MEASURE_WITH_UNIT (LENGTH_MEASURE( 1.000000000000000100E-005 ), #39, 'distance_accuracy_value', 'NONE');
#82 = DIRECTION ( 'NONE',  ( 1.000000000000000000, 0.0000000000000000000, -0.0000000000000000000 ) ) ;
#83 = PERSON_AND_ORGANIZATION ( #111, #113 ) ;
#84 = EDGE_LOOP ( 'NONE', ( #175, #145, #133, #40 ) ) ;
#85 = PERSON_AND_ORGANIZATION ( #111, #113 ) ;
#86 = CC_DESIGN_PERSON_AND_ORGANIZATION_ASSIGNMENT ( #85, #124, ( #95 ) ) ;
#87 = CYLINDRICAL_SURFACE ( 'NONE', #109, 12.69999999999999900 ) ;
#88 = ORIENTED_EDGE ( 'NONE', *, *, #4, .F. ) ;
#89 = CALENDAR_DATE ( 2018, 3, 8 ) ;
#90 = VERTEX_POINT ( 'NONE', #104 ) ;
#91 = DIRECTION ( 'NONE',  ( -0.0000000000000000000, -0.0000000000000000000, -1.000000000000000000 ) ) ;
#92 = ORIENTED_EDGE ( 'NONE', *, *, #37, .F. ) ;
#93 = CARTESIAN_POINT ( 'NONE',  ( 0.0000000000000000000, 0.0000000000000000000, 3.174999999999999800 ) ) ;
#94 = DATE_AND_TIME ( #89, #128 ) ;
#95 = PRODUCT ( 'Web Model 37689_37719', 'Web Model 37689_37719', '', ( #16 ) ) ;
#96 = EDGE_CURVE ( 'NONE', #101, #26, #171, .T. ) ;
#97 = APPROVAL_DATE_TIME ( #94, #79 ) ;
#98 = FACE_OUTER_BOUND ( 'NONE', #84, .T. ) ;
#99 = AXIS2_PLACEMENT_3D ( 'NONE', #169, #28, #82 ) ;
#100 = PERSON_AND_ORGANIZATION ( #111, #113 ) ;
#101 = VERTEX_POINT ( 'NONE', #30 ) ;
#102 = PLANE ( 'NONE',  #99 ) ;
#103 = DIRECTION ( 'NONE',  ( 0.0000000000000000000, 0.0000000000000000000, 1.000000000000000000 ) ) ;
#104 = CARTESIAN_POINT ( 'NONE',  ( 12.69999999999999900, 1.555301434917138400E-015, 3.174999999999999800 ) ) ;
#105 = AXIS2_PLACEMENT_3D ( 'NONE', #170, #34, #57 ) ;
#106 = DIRECTION ( 'NONE',  ( 1.000000000000000000, 0.0000000000000000000, 0.0000000000000000000 ) ) ;
#107 = DATE_TIME_ROLE ( 'classification_date' ) ;
#108 = PERSON_AND_ORGANIZATION ( #111, #113 ) ;
#109 = AXIS2_PLACEMENT_3D ( 'NONE', #52, #118, #13 ) ;
#110 = SHAPE_DEFINITION_REPRESENTATION ( #31, #21 ) ;
#111 = PERSON ( 'UNSPECIFIED', 'UNSPECIFIED', 'UNSPECIFIED', ('UNSPECIFIED'), ('UNSPECIFIED'), ('UNSPECIFIED') ) ;
#112 = CALENDAR_DATE ( 2018, 3, 8 ) ;
#113 = ORGANIZATION ( 'UNSPECIFIED', 'UNSPECIFIED', '' ) ;
#114 = VERTEX_POINT ( 'NONE', #53 ) ;
#115 = FACE_OUTER_BOUND ( 'NONE', #173, .T. ) ;
#116 = CC_DESIGN_APPROVAL ( #55, ( #45 ) ) ;
#117 = CARTESIAN_POINT ( 'NONE',  ( -12.69999999999999900, 0.0000000000000000000, 3.174999999999999800 ) ) ;
#118 = DIRECTION ( 'NONE',  ( -0.0000000000000000000, -0.0000000000000000000, -1.000000000000000000 ) ) ;
#119 = DIRECTION ( 'NONE',  ( -0.0000000000000000000, -0.0000000000000000000, -1.000000000000000000 ) ) ;
#120 = APPLICATION_PROTOCOL_DEFINITION ( 'international standard', 'config_control_design', 1994, #44 ) ;
#121 = CARTESIAN_POINT ( 'NONE',  ( 0.0000000000000000000, 0.0000000000000000000, 3.174999999999999800 ) ) ;
#122 = PERSON_AND_ORGANIZATION_ROLE ( 'design_supplier' ) ;
#123 = CYLINDRICAL_SURFACE ( 'NONE', #167, 12.69999999999999900 ) ;
#124 = PERSON_AND_ORGANIZATION_ROLE ( 'design_owner' ) ;
#125 = CALENDAR_DATE ( 2018, 3, 8 ) ;
#126 = FACE_OUTER_BOUND ( 'NONE', #77, .T. ) ;
#127 = ADVANCED_FACE ( 'NONE', ( #47 ), #102, .T. ) ;
#128 = LOCAL_TIME ( 14, 46, 26.00000000000000000, #157 ) ;
#129 = CIRCLE ( 'NONE', #49, 12.69999999999999900 ) ;
#130 = CC_DESIGN_PERSON_AND_ORGANIZATION_ASSIGNMENT ( #131, #140, ( #45 ) ) ;
#131 = PERSON_AND_ORGANIZATION ( #111, #113 ) ;
#132 = CC_DESIGN_PERSON_AND_ORGANIZATION_ASSIGNMENT ( #108, #122, ( #63 ) ) ;
#133 = ORIENTED_EDGE ( 'NONE', *, *, #27, .T. ) ;
#134 = PRODUCT_RELATED_PRODUCT_CATEGORY ( 'detail', '', ( #95 ) ) ;
#135 = CARTESIAN_POINT ( 'NONE',  ( 0.0000000000000000000, 0.0000000000000000000, 3.174999999999999800 ) ) ;
#136 = CIRCLE ( 'NONE', #41, 12.69999999999999900 ) ;
#137 = APPROVAL ( #43, 'UNSPECIFIED' ) ;
#138 = DESIGN_CONTEXT ( 'detailed design', #44, 'design' ) ;
#139 = DIRECTION ( 'NONE',  ( 1.000000000000000000, 0.0000000000000000000, 0.0000000000000000000 ) ) ;
#140 = PERSON_AND_ORGANIZATION_ROLE ( 'creator' ) ;
#141 = AXIS2_PLACEMENT_3D ( 'NONE', #166, #103, #29 ) ;
#142 = DIRECTION ( 'NONE',  ( 0.0000000000000000000, 0.0000000000000000000, 1.000000000000000000 ) ) ;
#143 = CC_DESIGN_DATE_AND_TIME_ASSIGNMENT ( #46, #158, ( #45 ) ) ;
#144 = PERSON_AND_ORGANIZATION ( #111, #113 ) ;
#145 = ORIENTED_EDGE ( 'NONE', *, *, #37, .T. ) ;
#146 = CC_DESIGN_APPROVAL ( #79, ( #63 ) ) ;
#147 = ADVANCED_FACE ( 'NONE', ( #126 ), #87, .T. ) ;
#148 = DATE_AND_TIME ( #125, #165 ) ;
#149 = ORIENTED_EDGE ( 'NONE', *, *, #2, .T. ) ;
#150 = COORDINATED_UNIVERSAL_TIME_OFFSET ( 5, 0, .BEHIND. ) ;
#151 = AXIS2_PLACEMENT_3D ( 'NONE', #121, #142, #106 ) ;
#152 =( NAMED_UNIT ( * ) PLANE_ANGLE_UNIT ( ) SI_UNIT ( $, .RADIAN. ) );
#153 = SECURITY_CLASSIFICATION ( '', '', #74 ) ;
#154 = DIRECTION ( 'NONE',  ( 0.0000000000000000000, 0.0000000000000000000, 1.000000000000000000 ) ) ;
#155 = PERSON_AND_ORGANIZATION_ROLE ( 'creator' ) ;
#156 = CARTESIAN_POINT ( 'NONE',  ( -12.69999999999999900, 0.0000000000000000000, -3.174999999999999800 ) ) ;
#157 = COORDINATED_UNIVERSAL_TIME_OFFSET ( 5, 0, .BEHIND. ) ;
#158 = DATE_TIME_ROLE ( 'creation_date' ) ;
#159 = CLOSED_SHELL ( 'NONE', ( #38, #147, #127, #24 ) ) ;
#160 = CIRCLE ( 'NONE', #11, 12.69999999999999900 ) ;
#161 = CC_DESIGN_DATE_AND_TIME_ASSIGNMENT ( #148, #107, ( #153 ) ) ;
#162 = DATE_AND_TIME ( #65, #62 ) ;
#163 = CC_DESIGN_PERSON_AND_ORGANIZATION_ASSIGNMENT ( #144, #70, ( #153 ) ) ;
#164 = EDGE_LOOP ( 'NONE', ( #58, #149 ) ) ;
#165 = LOCAL_TIME ( 14, 46, 26.00000000000000000, #7 ) ;
#166 = CARTESIAN_POINT ( 'NONE',  ( 0.0000000000000000000, 0.0000000000000000000, 0.0000000000000000000 ) ) ;
#167 = AXIS2_PLACEMENT_3D ( 'NONE', #135, #91, #67 ) ;
#168 = ORIENTED_EDGE ( 'NONE', *, *, #15, .F. ) ;
#169 = CARTESIAN_POINT ( 'NONE',  ( 0.0000000000000000000, 0.0000000000000000000, 3.174999999999999800 ) ) ;
#170 = CARTESIAN_POINT ( 'NONE',  ( 0.0000000000000000000, 0.0000000000000000000, -3.174999999999999800 ) ) ;
#171 = LINE ( 'NONE', #117, #54 ) ;
#172 = CC_DESIGN_APPROVAL ( #137, ( #153 ) ) ;
#173 = EDGE_LOOP ( 'NONE', ( #88, #64 ) ) ;
#174 = ORIENTED_EDGE ( 'NONE', *, *, #96, .T. ) ;
#175 = ORIENTED_EDGE ( 'NONE', *, *, #2, .F. ) ;
ENDSEC;
END-ISO-10303-21;
