ISO-10303-21;
HEADER;
FILE_DESCRIPTION (( 'STEP AP203' ),
    '1' );
FILE_NAME ('20184-E0W.STEP',
    '2009-09-14T20:47:26',
    ( 'Admin' ),
    ( 'Thorlabs, Inc.' ),
    'SwSTEP 2.0',
    'SolidWorks 2007',
    '' );
FILE_SCHEMA (( 'CONFIG_CONTROL_DESIGN' ));
ENDSEC;

DATA;
#1 = EDGE_LOOP ( 'NONE', ( #26, #56, #4 ) ) ;
#2 = MANIFOLD_SOLID_BREP ( 'NONE', #15 ) ;
#3 = EDGE_LOOP ( 'NONE', ( #117, #18, #116, #17 ) ) ;
#4 = ORIENTED_EDGE ( 'NONE', *, *, #118, .F. ) ;
#5 = ADVANCED_FACE ( 'NONE', ( #41 ), #38, .T. ) ;
#6 = EDGE_LOOP ( 'NONE', ( #8, #9, #28 ) ) ;
#7 = ADVANCED_FACE ( 'NONE', ( #39 ), #33, .T. ) ;
#8 = ORIENTED_EDGE ( 'NONE', *, *, #32, .F. ) ;
#9 = ORIENTED_EDGE ( 'NONE', *, *, #31, .T. ) ;
#10 = EDGE_CURVE ( 'NONE', #16, #115, #52, .T. ) ;
#11 = ORIENTED_EDGE ( 'NONE', *, *, #114, .F. ) ;
#12 = ORIENTED_EDGE ( 'NONE', *, *, #29, .T. ) ;
#13 = ORIENTED_EDGE ( 'NONE', *, *, #24, .T. ) ;
#14 = ORIENTED_EDGE ( 'NONE', *, *, #20, .F. ) ;
#15 = CLOSED_SHELL ( 'NONE', ( #7, #25, #22, #5, #23 ) ) ;
#16 = VERTEX_POINT ( 'NONE', #47 ) ;
#17 = ORIENTED_EDGE ( 'NONE', *, *, #24, .F. ) ;
#18 = ORIENTED_EDGE ( 'NONE', *, *, #114, .T. ) ;
#19 = ORIENTED_EDGE ( 'NONE', *, *, #20, .T. ) ;
#20 = EDGE_CURVE ( 'NONE', #115, #16, #44, .T. ) ;
#21 = ORIENTED_EDGE ( 'NONE', *, *, #10, .T. ) ;
#22 = ADVANCED_FACE ( 'NONE', ( #61 ), #60, .T. ) ;
#23 = ADVANCED_FACE ( 'NONE', ( #64 ), #65, .T. ) ;
#24 = EDGE_CURVE ( 'NONE', #119, #16, #71, .T. ) ;
#25 = ADVANCED_FACE ( 'NONE', ( #73 ), #77, .T. ) ;
#26 = ORIENTED_EDGE ( 'NONE', *, *, #31, .F. ) ;
#27 = EDGE_LOOP ( 'NONE', ( #21, #19 ) ) ;
#28 = ORIENTED_EDGE ( 'NONE', *, *, #29, .F. ) ;
#29 = EDGE_CURVE ( 'NONE', #120, #119, #82, .T. ) ;
#30 = EDGE_LOOP ( 'NONE', ( #11, #12, #13, #14 ) ) ;
#31 = EDGE_CURVE ( 'NONE', #42, #119, #113, .T. ) ;
#32 = EDGE_CURVE ( 'NONE', #42, #120, #110, .T. ) ;
#33 = CYLINDRICAL_SURFACE ( 'NONE', #34, 12.69999999999998700 ) ;
#34 = AXIS2_PLACEMENT_3D ( 'NONE', #55, #54, #53 ) ;
#35 = DIRECTION ( 'NONE',  ( 0.0000000000000000000, 1.000000000000000000, 3.895191368534421800E-016 ) ) ;
#36 = DIRECTION ( 'NONE',  ( 1.000000000000000000, 0.0000000000000000000, 0.0000000000000000000 ) ) ;
#37 = AXIS2_PLACEMENT_3D ( 'NONE', #40, #36, #35 ) ;
#38 = SPHERICAL_SURFACE ( 'NONE', #37, 35.62800000000005000 ) ;
#39 = FACE_OUTER_BOUND ( 'NONE', #3, .T. ) ;
#40 = CARTESIAN_POINT ( 'NONE',  ( 0.0000000000000000000, 3.972378090529005800E-015, -33.45799999999998400 ) ) ;
#41 = FACE_OUTER_BOUND ( 'NONE', #6, .T. ) ;
#42 = VERTEX_POINT ( 'NONE', #105 ) ;
#43 = AXIS2_PLACEMENT_3D ( 'NONE', #63, #57, #62 ) ;
#44 = CIRCLE ( 'NONE', #43, 12.69999999999999800 ) ;
#45 = DIRECTION ( 'NONE',  ( 0.0000000000000000000, 1.000000000000000000, 3.061515884555943100E-016 ) ) ;
#46 = DIRECTION ( 'NONE',  ( 0.0000000000000000000, 3.061515884555943100E-016, -1.000000000000000000 ) ) ;
#47 = CARTESIAN_POINT ( 'NONE',  ( 0.0000000000000000000, 12.69999999999999900, -2.169999999999999900 ) ) ;
#48 = DIRECTION ( 'NONE',  ( 0.0000000000000000000, 1.000000000000000000, 3.073328992872296900E-016 ) ) ;
#49 = DIRECTION ( 'NONE',  ( 0.0000000000000000000, 3.061515884555943100E-016, -1.000000000000000000 ) ) ;
#50 = CARTESIAN_POINT ( 'NONE',  ( 0.0000000000000000000, 9.380484670279418900E-016, -2.170000000000003900 ) ) ;
#51 = AXIS2_PLACEMENT_3D ( 'NONE', #50, #49, #48 ) ;
#52 = CIRCLE ( 'NONE', #51, 12.69999999999999800 ) ;
#53 = DIRECTION ( 'NONE',  ( 0.0000000000000000000, 1.000000000000000000, 3.073328992872299300E-016 ) ) ;
#54 = DIRECTION ( 'NONE',  ( 0.0000000000000000000, 3.061515884555943100E-016, -1.000000000000000000 ) ) ;
#55 = CARTESIAN_POINT ( 'NONE',  ( 0.0000000000000000000, 9.380484670279409100E-016, -2.169999999999999900 ) ) ;
#56 = ORIENTED_EDGE ( 'NONE', *, *, #32, .T. ) ;
#57 = DIRECTION ( 'NONE',  ( 0.0000000000000000000, 3.061515884555943100E-016, -1.000000000000000000 ) ) ;
#58 = CARTESIAN_POINT ( 'NONE',  ( 0.0000000000000000000, 9.380484670279415000E-016, -2.170000000000001700 ) ) ;
#59 = AXIS2_PLACEMENT_3D ( 'NONE', #58, #46, #45 ) ;
#60 = PLANE ( 'NONE',  #59 ) ;
#61 = FACE_OUTER_BOUND ( 'NONE', #27, .T. ) ;
#62 = DIRECTION ( 'NONE',  ( 0.0000000000000000000, 1.000000000000000000, 3.073328992872296900E-016 ) ) ;
#63 = CARTESIAN_POINT ( 'NONE',  ( 0.0000000000000000000, 9.380484670279418900E-016, -2.170000000000003900 ) ) ;
#64 = FACE_OUTER_BOUND ( 'NONE', #30, .T. ) ;
#65 = CYLINDRICAL_SURFACE ( 'NONE', #66, 12.69999999999998700 ) ;
#66 = AXIS2_PLACEMENT_3D ( 'NONE', #84, #68, #67 ) ;
#67 = DIRECTION ( 'NONE',  ( 0.0000000000000000000, 1.000000000000000000, 3.073328992872299300E-016 ) ) ;
#68 = DIRECTION ( 'NONE',  ( 0.0000000000000000000, 3.061515884555943100E-016, -1.000000000000000000 ) ) ;
#69 = VECTOR ( 'NONE', #74, 1000.000000000000000 ) ;
#70 = CARTESIAN_POINT ( 'NONE',  ( 0.0000000000000000000, 12.69999999999998900, -2.169999999999995900 ) ) ;
#71 = LINE ( 'NONE', #70, #69 ) ;
#72 = DIRECTION ( 'NONE',  ( 1.000000000000000000, 0.0000000000000000000, 0.0000000000000000000 ) ) ;
#73 = FACE_OUTER_BOUND ( 'NONE', #1, .T. ) ;
#74 = DIRECTION ( 'NONE',  ( 0.0000000000000000000, 3.061515884555943100E-016, -1.000000000000000000 ) ) ;
#75 = CARTESIAN_POINT ( 'NONE',  ( 0.0000000000000000000, 3.972378090529005800E-015, -33.45799999999998400 ) ) ;
#76 = AXIS2_PLACEMENT_3D ( 'NONE', #75, #72, #83 ) ;
#77 = SPHERICAL_SURFACE ( 'NONE', #76, 35.62800000000005000 ) ;
#78 = DIRECTION ( 'NONE',  ( 0.0000000000000000000, 1.000000000000000000, 3.051986430421800200E-016 ) ) ;
#79 = DIRECTION ( 'NONE',  ( 0.0000000000000000000, 3.061515884555943100E-016, -1.000000000000000000 ) ) ;
#80 = CARTESIAN_POINT ( 'NONE',  ( 0.0000000000000000000, 3.258674277476422000E-016, -0.1703989449524210000 ) ) ;
#81 = AXIS2_PLACEMENT_3D ( 'NONE', #80, #79, #78 ) ;
#82 = CIRCLE ( 'NONE', #81, 12.69999999999997400 ) ;
#83 = DIRECTION ( 'NONE',  ( 0.0000000000000000000, 1.000000000000000000, 3.895191368534421800E-016 ) ) ;
#84 = CARTESIAN_POINT ( 'NONE',  ( 0.0000000000000000000, 9.380484670279409100E-016, -2.169999999999999900 ) ) ;
#85 = ADVANCED_BREP_SHAPE_REPRESENTATION ( '20184-E0W', ( #2, #158 ), #86 ) ;
#86 =( GEOMETRIC_REPRESENTATION_CONTEXT ( 3 ) GLOBAL_UNCERTAINTY_ASSIGNED_CONTEXT ( ( #87 ) ) GLOBAL_UNIT_ASSIGNED_CONTEXT ( ( #90, #89, #88 ) ) REPRESENTATION_CONTEXT ( 'NONE', 'WORKASPACE' ) );
#87 = UNCERTAINTY_MEASURE_WITH_UNIT (LENGTH_MEASURE( 1.000000000000000100E-005 ), #90, 'distance_accuracy_value', 'NONE');
#88 =( NAMED_UNIT ( * ) SI_UNIT ( $, .STERADIAN. ) SOLID_ANGLE_UNIT ( ) );
#89 =( NAMED_UNIT ( * ) PLANE_ANGLE_UNIT ( ) SI_UNIT ( $, .RADIAN. ) );
#90 =( LENGTH_UNIT ( ) NAMED_UNIT ( * ) SI_UNIT ( .MILLI., .METRE. ) );
#91 = CARTESIAN_POINT ( 'NONE',  ( 1.555250069354416900E-015, -12.69999999999998900, -0.1703989449524314100 ) ) ;
#92 = CARTESIAN_POINT ( 'NONE',  ( 0.0000000000000000000, 12.69999999999998200, -0.1703989449524170900 ) ) ;
#93 = DIRECTION ( 'NONE',  ( 0.0000000000000000000, 1.000000000000000000, 3.051986430421800200E-016 ) ) ;
#94 = DIRECTION ( 'NONE',  ( 0.0000000000000000000, 3.061515884555943100E-016, -1.000000000000000000 ) ) ;
#95 = CARTESIAN_POINT ( 'NONE',  ( 0.0000000000000000000, 3.258674277476422000E-016, -0.1703989449524210000 ) ) ;
#96 = AXIS2_PLACEMENT_3D ( 'NONE', #95, #94, #93 ) ;
#97 = CIRCLE ( 'NONE', #96, 12.69999999999997400 ) ;
#98 = CARTESIAN_POINT ( 'NONE',  ( 1.555250069354418900E-015, -12.69999999999999800, -2.170000000000007900 ) ) ;
#99 = DIRECTION ( 'NONE',  ( -1.000000000000000000, 0.0000000000000000000, 0.0000000000000000000 ) ) ;
#100 = CARTESIAN_POINT ( 'NONE',  ( 0.0000000000000000000, 3.972378090529005800E-015, -33.45799999999998400 ) ) ;
#101 = DIRECTION ( 'NONE',  ( 0.0000000000000000000, 3.061515884555943100E-016, -1.000000000000000000 ) ) ;
#102 = VECTOR ( 'NONE', #101, 1000.000000000000000 ) ;
#103 = CARTESIAN_POINT ( 'NONE',  ( 1.555250069354417500E-015, -12.69999999999998500, -2.170000000000003900 ) ) ;
#104 = LINE ( 'NONE', #103, #102 ) ;
#105 = CARTESIAN_POINT ( 'NONE',  ( 0.0000000000000000000, -4.753676944267736800E-015, 2.170000000000060800 ) ) ;
#106 = DIRECTION ( 'NONE',  ( -1.224606353822377000E-016, 1.000000000000000000, 0.0000000000000000000 ) ) ;
#107 = DIRECTION ( 'NONE',  ( 1.000000000000000000, 1.224606353822377300E-016, 3.749151804555343600E-032 ) ) ;
#108 = CARTESIAN_POINT ( 'NONE',  ( 0.0000000000000000000, 3.972378090529005800E-015, -33.45799999999998400 ) ) ;
#109 = AXIS2_PLACEMENT_3D ( 'NONE', #108, #107, #106 ) ;
#110 = CIRCLE ( 'NONE', #109, 35.62800000000005000 ) ;
#111 = DIRECTION ( 'NONE',  ( 0.0000000000000000000, 0.0000000000000000000, 1.000000000000000000 ) ) ;
#112 = AXIS2_PLACEMENT_3D ( 'NONE', #100, #99, #111 ) ;
#113 = CIRCLE ( 'NONE', #112, 35.62800000000005000 ) ;
#114 = EDGE_CURVE ( 'NONE', #120, #115, #104, .T. ) ;
#115 = VERTEX_POINT ( 'NONE', #98 ) ;
#116 = ORIENTED_EDGE ( 'NONE', *, *, #10, .F. ) ;
#117 = ORIENTED_EDGE ( 'NONE', *, *, #118, .T. ) ;
#118 = EDGE_CURVE ( 'NONE', #119, #120, #97, .T. ) ;
#119 = VERTEX_POINT ( 'NONE', #92 ) ;
#120 = VERTEX_POINT ( 'NONE', #91 ) ;
#121 = CARTESIAN_POINT ( 'NONE',  ( 0.0000000000000000000, 0.0000000000000000000, 0.0000000000000000000 ) ) ;
#122 = SHAPE_DEFINITION_REPRESENTATION ( #187, #85 ) ;
#123 = DATE_TIME_ROLE ( 'classification_date' ) ;
#124 = DATE_AND_TIME ( #125, #126 ) ;
#125 = CALENDAR_DATE ( 2009, 14, 9 ) ;
#126 = LOCAL_TIME ( 16, 47, 26.00000000000000000, #127 ) ;
#127 = COORDINATED_UNIVERSAL_TIME_OFFSET ( 5, 0, .BEHIND. ) ;
#128 = CC_DESIGN_PERSON_AND_ORGANIZATION_ASSIGNMENT ( #130, #129, ( #131 ) ) ;
#129 = PERSON_AND_ORGANIZATION_ROLE ( 'classification_officer' ) ;
#130 = PERSON_AND_ORGANIZATION ( #151, #186 ) ;
#131 = SECURITY_CLASSIFICATION ( '', '', #132 ) ;
#132 = SECURITY_CLASSIFICATION_LEVEL ( 'unclassified' ) ;
#133 = CC_DESIGN_PERSON_AND_ORGANIZATION_ASSIGNMENT ( #135, #134, ( #150 ) ) ;
#134 = PERSON_AND_ORGANIZATION_ROLE ( 'design_supplier' ) ;
#135 = PERSON_AND_ORGANIZATION ( #151, #186 ) ;
#136 = CC_DESIGN_PERSON_AND_ORGANIZATION_ASSIGNMENT ( #138, #137, ( #150 ) ) ;
#137 = PERSON_AND_ORGANIZATION_ROLE ( 'creator' ) ;
#138 = PERSON_AND_ORGANIZATION ( #151, #186 ) ;
#139 = CC_DESIGN_APPROVAL ( #147, ( #150 ) ) ;
#140 = APPROVAL_DATE_TIME ( #141, #147 ) ;
#141 = DATE_AND_TIME ( #142, #143 ) ;
#142 = CALENDAR_DATE ( 2009, 14, 9 ) ;
#143 = LOCAL_TIME ( 16, 47, 26.00000000000000000, #144 ) ;
#144 = COORDINATED_UNIVERSAL_TIME_OFFSET ( 5, 0, .BEHIND. ) ;
#145 = APPROVAL_PERSON_ORGANIZATION ( #149, #147, #146 ) ;
#146 = APPROVAL_ROLE ( '' ) ;
#147 = APPROVAL ( #148, 'UNSPECIFIED' ) ;
#148 = APPROVAL_STATUS ( 'not_yet_approved' ) ;
#149 = PERSON_AND_ORGANIZATION ( #151, #186 ) ;
#150 = PRODUCT_DEFINITION_FORMATION_WITH_SPECIFIED_SOURCE ( 'ANY', '', #152, .NOT_KNOWN. ) ;
#151 = PERSON ( 'UNSPECIFIED', 'UNSPECIFIED', 'UNSPECIFIED', ('UNSPECIFIED'), ('UNSPECIFIED'), ('UNSPECIFIED') ) ;
#152 = PRODUCT ( '20184-E0W', '20184-E0W', '', ( #153 ) ) ;
#153 = MECHANICAL_CONTEXT ( 'NONE', #155, 'mechanical' ) ;
#154 = APPLICATION_PROTOCOL_DEFINITION ( 'international standard', 'config_control_design', 1994, #155 ) ;
#155 = APPLICATION_CONTEXT ( 'configuration controlled 3d designs of mechanical parts and assemblies' ) ;
#156 = DIRECTION ( 'NONE',  ( 1.000000000000000000, 0.0000000000000000000, 0.0000000000000000000 ) ) ;
#157 = DIRECTION ( 'NONE',  ( 0.0000000000000000000, 0.0000000000000000000, 1.000000000000000000 ) ) ;
#158 = AXIS2_PLACEMENT_3D ( 'NONE', #121, #157, #156 ) ;
#159 = CC_DESIGN_DATE_AND_TIME_ASSIGNMENT ( #161, #160, ( #179 ) ) ;
#160 = DATE_TIME_ROLE ( 'creation_date' ) ;
#161 = DATE_AND_TIME ( #162, #163 ) ;
#162 = CALENDAR_DATE ( 2009, 14, 9 ) ;
#163 = LOCAL_TIME ( 16, 47, 26.00000000000000000, #164 ) ;
#164 = COORDINATED_UNIVERSAL_TIME_OFFSET ( 5, 0, .BEHIND. ) ;
#165 = CC_DESIGN_PERSON_AND_ORGANIZATION_ASSIGNMENT ( #167, #166, ( #179 ) ) ;
#166 = PERSON_AND_ORGANIZATION_ROLE ( 'creator' ) ;
#167 = PERSON_AND_ORGANIZATION ( #151, #186 ) ;
#168 = CC_DESIGN_APPROVAL ( #176, ( #179 ) ) ;
#169 = APPROVAL_DATE_TIME ( #170, #176 ) ;
#170 = DATE_AND_TIME ( #171, #172 ) ;
#171 = CALENDAR_DATE ( 2009, 14, 9 ) ;
#172 = LOCAL_TIME ( 16, 47, 26.00000000000000000, #173 ) ;
#173 = COORDINATED_UNIVERSAL_TIME_OFFSET ( 5, 0, .BEHIND. ) ;
#174 = APPROVAL_PERSON_ORGANIZATION ( #178, #176, #175 ) ;
#175 = APPROVAL_ROLE ( '' ) ;
#176 = APPROVAL ( #177, 'UNSPECIFIED' ) ;
#177 = APPROVAL_STATUS ( 'not_yet_approved' ) ;
#178 = PERSON_AND_ORGANIZATION ( #151, #186 ) ;
#179 = PRODUCT_DEFINITION ( 'UNKNOWN', '', #150, #180 ) ;
#180 = DESIGN_CONTEXT ( 'detailed design', #182, 'design' ) ;
#181 = APPLICATION_PROTOCOL_DEFINITION ( 'international standard', 'config_control_design', 1994, #182 ) ;
#182 = APPLICATION_CONTEXT ( 'configuration controlled 3d designs of mechanical parts and assemblies' ) ;
#183 = CC_DESIGN_PERSON_AND_ORGANIZATION_ASSIGNMENT ( #185, #184, ( #152 ) ) ;
#184 = PERSON_AND_ORGANIZATION_ROLE ( 'design_owner' ) ;
#185 = PERSON_AND_ORGANIZATION ( #151, #186 ) ;
#186 = ORGANIZATION ( 'UNSPECIFIED', 'UNSPECIFIED', '' ) ;
#187 = PRODUCT_DEFINITION_SHAPE ( 'NONE', 'NONE',  #179 ) ;
#188 = PRODUCT_RELATED_PRODUCT_CATEGORY ( 'detail', '', ( #152 ) ) ;
#189 = CC_DESIGN_SECURITY_CLASSIFICATION ( #131, ( #150 ) ) ;
#190 = CC_DESIGN_APPROVAL ( #198, ( #131 ) ) ;
#191 = APPROVAL_DATE_TIME ( #192, #198 ) ;
#192 = DATE_AND_TIME ( #193, #194 ) ;
#193 = CALENDAR_DATE ( 2009, 14, 9 ) ;
#194 = LOCAL_TIME ( 16, 47, 26.00000000000000000, #195 ) ;
#195 = COORDINATED_UNIVERSAL_TIME_OFFSET ( 5, 0, .BEHIND. ) ;
#196 = APPROVAL_PERSON_ORGANIZATION ( #200, #198, #197 ) ;
#197 = APPROVAL_ROLE ( '' ) ;
#198 = APPROVAL ( #199, 'UNSPECIFIED' ) ;
#199 = APPROVAL_STATUS ( 'not_yet_approved' ) ;
#200 = PERSON_AND_ORGANIZATION ( #151, #186 ) ;
#201 = CC_DESIGN_DATE_AND_TIME_ASSIGNMENT ( #124, #123, ( #131 ) ) ;
ENDSEC;
END-ISO-10303-21;
