ISO-10303-21;
HEADER;
FILE_DESCRIPTION (( 'STEP AP203' ),
    '1' );
FILE_NAME ('Web Model 20017_20018.step',
    '2022-03-21T20:28:45',
    ( '' ),
    ( '' ),
    'SwSTEP 2.0',
    'SolidWorks 2021',
    '' );
FILE_SCHEMA (( 'CONFIG_CONTROL_DESIGN' ));
ENDSEC;

DATA;
#1 = AXIS2_PLACEMENT_3D ( 'NONE', #15, #31, #88 ) ;
#2 = DATE_AND_TIME ( #30, #115 ) ;
#3 = CARTESIAN_POINT ( 'NONE',  ( 0.000000000000000000, 0.000000000000000000, 1.000000000000000000 ) ) ;
#4 = MECHANICAL_CONTEXT ( 'NONE', #137, 'mechanical' ) ;
#5 = CC_DESIGN_APPROVAL ( #47, ( #138 ) ) ;
#6 = DIRECTION ( 'NONE',  ( 0.000000000000000000, 0.000000000000000000, 1.000000000000000000 ) ) ;
#7 = ORIENTED_EDGE ( 'NONE', *, *, #19, .T. ) ;
#8 = PLANE ( 'NONE',  #101 ) ;
#9 = LINE ( 'NONE', #39, #55 ) ;
#10 = CARTESIAN_POINT ( 'NONE',  ( 12.69999999999999929, 1.555301434917138433E-15, 1.000000000000000000 ) ) ;
#11 = COORDINATED_UNIVERSAL_TIME_OFFSET ( 5, 0, .BEHIND. ) ;
#12 = CIRCLE ( 'NONE', #156, 12.69999999999999929 ) ;
#13 = CIRCLE ( 'NONE', #166, 12.69999999999999929 ) ;
#14 = MANIFOLD_SOLID_BREP ( 'Boss-Extrude1', #66 ) ;
#15 = CARTESIAN_POINT ( 'NONE',  ( 0.000000000000000000, 0.000000000000000000, 0.000000000000000000 ) ) ;
#16 = LOCAL_TIME ( 16, 28, 45.00000000000000000, #98 ) ;
#17 = CALENDAR_DATE ( 2022, 21, 3 ) ;
#18 = FACE_OUTER_BOUND ( 'NONE', #130, .T. ) ;
#19 = EDGE_CURVE ( 'NONE', #165, #22, #9, .T. ) ;
#20 = PERSON_AND_ORGANIZATION ( #121, #43 ) ;
#21 = CARTESIAN_POINT ( 'NONE',  ( -12.69999999999999929, 0.000000000000000000, 0.000000000000000000 ) ) ;
#22 = VERTEX_POINT ( 'NONE', #23 ) ;
#23 = CARTESIAN_POINT ( 'NONE',  ( 12.69999999999999929, 1.555301434917138433E-15, 0.000000000000000000 ) ) ;
#24 = EDGE_CURVE ( 'NONE', #76, #165, #151, .T. ) ;
#25 = PERSON_AND_ORGANIZATION_ROLE ( 'design_owner' ) ;
#26 = DIRECTION ( 'NONE',  ( 1.000000000000000000, 0.000000000000000000, 0.000000000000000000 ) ) ;
#27 = CALENDAR_DATE ( 2022, 21, 3 ) ;
#28 = ADVANCED_BREP_SHAPE_REPRESENTATION ( 'Web Model 20017_20018', ( #14, #159 ), #119 ) ;
#29 = APPROVAL_DATE_TIME ( #2, #153 ) ;
#30 = CALENDAR_DATE ( 2022, 21, 3 ) ;
#31 = DIRECTION ( 'NONE',  ( 0.000000000000000000, 0.000000000000000000, 1.000000000000000000 ) ) ;
#32 = CALENDAR_DATE ( 2022, 21, 3 ) ;
#33 = DIRECTION ( 'NONE',  ( 0.000000000000000000, 0.000000000000000000, 1.000000000000000000 ) ) ;
#34 = APPROVAL_PERSON_ORGANIZATION ( #59, #40, #102 ) ;
#35 = EDGE_CURVE ( 'NONE', #165, #76, #12, .T. ) ;
#36 = FACE_OUTER_BOUND ( 'NONE', #92, .T. ) ;
#37 = ORIENTED_EDGE ( 'NONE', *, *, #24, .F. ) ;
#38 =( NAMED_UNIT ( * ) SI_UNIT ( $, .STERADIAN. ) SOLID_ANGLE_UNIT ( ) );
#39 = CARTESIAN_POINT ( 'NONE',  ( 12.69999999999999929, 1.555301434917138433E-15, 1.000000000000000000 ) ) ;
#40 = APPROVAL ( #49, 'UNSPECIFIED' ) ;
#41 = ORIENTED_EDGE ( 'NONE', *, *, #19, .F. ) ;
#42 = COORDINATED_UNIVERSAL_TIME_OFFSET ( 5, 0, .BEHIND. ) ;
#43 = ORGANIZATION ( 'UNSPECIFIED', 'UNSPECIFIED', '' ) ;
#44 = CC_DESIGN_PERSON_AND_ORGANIZATION_ASSIGNMENT ( #45, #85, ( #83 ) ) ;
#45 = PERSON_AND_ORGANIZATION ( #121, #43 ) ;
#46 = DATE_AND_TIME ( #32, #82 ) ;
#47 = APPROVAL ( #107, 'UNSPECIFIED' ) ;
#48 = CIRCLE ( 'NONE', #1, 12.69999999999999929 ) ;
#49 = APPROVAL_STATUS ( 'not_yet_approved' ) ;
#50 = PRODUCT_DEFINITION_SHAPE ( 'NONE', 'NONE',  #138 ) ;
#51 = ORIENTED_EDGE ( 'NONE', *, *, #63, .F. ) ;
#52 = DIRECTION ( 'NONE',  ( -0.000000000000000000, -0.000000000000000000, -1.000000000000000000 ) ) ;
#53 = DATE_AND_TIME ( #67, #114 ) ;
#54 = ADVANCED_FACE ( 'NONE', ( #36 ), #112, .T. ) ;
#55 = VECTOR ( 'NONE', #145, 1000.000000000000000 ) ;
#56 = APPROVAL_DATE_TIME ( #46, #40 ) ;
#57 = PERSON_AND_ORGANIZATION_ROLE ( 'creator' ) ;
#58 = DIRECTION ( 'NONE',  ( -0.000000000000000000, -0.000000000000000000, -1.000000000000000000 ) ) ;
#59 = PERSON_AND_ORGANIZATION ( #121, #43 ) ;
#60 = AXIS2_PLACEMENT_3D ( 'NONE', #3, #58, #155 ) ;
#61 = CC_DESIGN_SECURITY_CLASSIFICATION ( #167, ( #83 ) ) ;
#62 = FACE_OUTER_BOUND ( 'NONE', #147, .T. ) ;
#63 = EDGE_CURVE ( 'NONE', #22, #103, #48, .T. ) ;
#64 = DIRECTION ( 'NONE',  ( 0.000000000000000000, 0.000000000000000000, 1.000000000000000000 ) ) ;
#65 = PERSON_AND_ORGANIZATION ( #121, #43 ) ;
#66 = CLOSED_SHELL ( 'NONE', ( #54, #68, #117, #135 ) ) ;
#67 = CALENDAR_DATE ( 2022, 21, 3 ) ;
#68 = ADVANCED_FACE ( 'NONE', ( #18 ), #175, .T. ) ;
#69 = APPROVAL_PERSON_ORGANIZATION ( #65, #47, #158 ) ;
#70 = AXIS2_PLACEMENT_3D ( 'NONE', #113, #162, #131 ) ;
#71 = APPROVAL_STATUS ( 'not_yet_approved' ) ;
#72 = PERSON_AND_ORGANIZATION_ROLE ( 'classification_officer' ) ;
#73 = DATE_TIME_ROLE ( 'creation_date' ) ;
#74 = ORIENTED_EDGE ( 'NONE', *, *, #106, .T. ) ;
#75 = CARTESIAN_POINT ( 'NONE',  ( 0.000000000000000000, 0.000000000000000000, 0.000000000000000000 ) ) ;
#76 = VERTEX_POINT ( 'NONE', #157 ) ;
#77 = CC_DESIGN_APPROVAL ( #153, ( #167 ) ) ;
#78 = DIRECTION ( 'NONE',  ( 0.000000000000000000, 0.000000000000000000, 1.000000000000000000 ) ) ;
#79 = CARTESIAN_POINT ( 'NONE',  ( 0.000000000000000000, 0.000000000000000000, 1.000000000000000000 ) ) ;
#80 =( NAMED_UNIT ( * ) PLANE_ANGLE_UNIT ( ) SI_UNIT ( $, .RADIAN. ) );
#81 = APPROVAL_DATE_TIME ( #148, #47 ) ;
#82 = LOCAL_TIME ( 16, 28, 45.00000000000000000, #160 ) ;
#83 = PRODUCT_DEFINITION_FORMATION_WITH_SPECIFIED_SOURCE ( 'ANY', '', #141, .NOT_KNOWN. ) ;
#84 = CC_DESIGN_DATE_AND_TIME_ASSIGNMENT ( #53, #73, ( #138 ) ) ;
#85 = PERSON_AND_ORGANIZATION_ROLE ( 'design_supplier' ) ;
#86 = LOCAL_TIME ( 16, 28, 45.00000000000000000, #42 ) ;
#87 = APPLICATION_CONTEXT ( 'configuration controlled 3d designs of mechanical parts and assemblies' ) ;
#88 = DIRECTION ( 'NONE',  ( 1.000000000000000000, 0.000000000000000000, 0.000000000000000000 ) ) ;
#89 = DIRECTION ( 'NONE',  ( 1.000000000000000000, 0.000000000000000000, 0.000000000000000000 ) ) ;
#90 = APPLICATION_PROTOCOL_DEFINITION ( 'international standard', 'config_control_design', 1994, #87 ) ;
#91 = ORIENTED_EDGE ( 'NONE', *, *, #163, .F. ) ;
#92 = EDGE_LOOP ( 'NONE', ( #120, #7, #132, #91 ) ) ;
#93 = DIRECTION ( 'NONE',  ( 1.000000000000000000, 0.000000000000000000, -0.000000000000000000 ) ) ;
#94 = EDGE_LOOP ( 'NONE', ( #142, #140 ) ) ;
#95 = ORIENTED_EDGE ( 'NONE', *, *, #106, .F. ) ;
#96 = CARTESIAN_POINT ( 'NONE',  ( 0.000000000000000000, 0.000000000000000000, 0.000000000000000000 ) ) ;
#97 = DESIGN_CONTEXT ( 'detailed design', #87, 'design' ) ;
#98 = COORDINATED_UNIVERSAL_TIME_OFFSET ( 5, 0, .BEHIND. ) ;
#99 = AXIS2_PLACEMENT_3D ( 'NONE', #79, #64, #26 ) ;
#100 = DATE_TIME_ROLE ( 'classification_date' ) ;
#101 = AXIS2_PLACEMENT_3D ( 'NONE', #170, #171, #133 ) ;
#102 = APPROVAL_ROLE ( '' ) ;
#103 = VERTEX_POINT ( 'NONE', #21 ) ;
#104 = APPLICATION_PROTOCOL_DEFINITION ( 'international standard', 'config_control_design', 1994, #137 ) ;
#105 = LINE ( 'NONE', #118, #129 ) ;
#106 = EDGE_CURVE ( 'NONE', #103, #22, #13, .T. ) ;
#107 = APPROVAL_STATUS ( 'not_yet_approved' ) ;
#108 = ORIENTED_EDGE ( 'NONE', *, *, #163, .T. ) ;
#109 = PLANE ( 'NONE',  #144 ) ;
#110 = CC_DESIGN_PERSON_AND_ORGANIZATION_ASSIGNMENT ( #134, #139, ( #138 ) ) ;
#111 = PERSON_AND_ORGANIZATION ( #121, #43 ) ;
#112 = CYLINDRICAL_SURFACE ( 'NONE', #60, 12.69999999999999929 ) ;
#113 = CARTESIAN_POINT ( 'NONE',  ( 0.000000000000000000, 0.000000000000000000, 1.000000000000000000 ) ) ;
#114 = LOCAL_TIME ( 16, 28, 45.00000000000000000, #11 ) ;
#115 = LOCAL_TIME ( 16, 28, 45.00000000000000000, #154 ) ;
#116 = DATE_AND_TIME ( #17, #16 ) ;
#117 = ADVANCED_FACE ( 'NONE', ( #169 ), #8, .T. ) ;
#118 = CARTESIAN_POINT ( 'NONE',  ( -12.69999999999999929, 0.000000000000000000, 1.000000000000000000 ) ) ;
#119 =( GEOMETRIC_REPRESENTATION_CONTEXT ( 3 ) GLOBAL_UNCERTAINTY_ASSIGNED_CONTEXT ( ( #126 ) ) GLOBAL_UNIT_ASSIGNED_CONTEXT ( ( #168, #80, #38 ) ) REPRESENTATION_CONTEXT ( 'NONE', 'WORKASPACE' ) );
#120 = ORIENTED_EDGE ( 'NONE', *, *, #35, .F. ) ;
#121 = PERSON ( 'UNSPECIFIED', 'UNSPECIFIED', 'UNSPECIFIED', ('UNSPECIFIED'), ('UNSPECIFIED'), ('UNSPECIFIED') ) ;
#122 = PRODUCT_RELATED_PRODUCT_CATEGORY ( 'detail', '', ( #141 ) ) ;
#123 = DIRECTION ( 'NONE',  ( 0.000000000000000000, 0.000000000000000000, 1.000000000000000000 ) ) ;
#124 = DIRECTION ( 'NONE',  ( 1.000000000000000000, 0.000000000000000000, 0.000000000000000000 ) ) ;
#125 = CC_DESIGN_PERSON_AND_ORGANIZATION_ASSIGNMENT ( #20, #57, ( #83 ) ) ;
#126 = UNCERTAINTY_MEASURE_WITH_UNIT (LENGTH_MEASURE( 1.000000000000000082E-05 ), #168, 'distance_accuracy_value', 'NONE');
#127 = CC_DESIGN_DATE_AND_TIME_ASSIGNMENT ( #116, #100, ( #167 ) ) ;
#128 = DIRECTION ( 'NONE',  ( 1.000000000000000000, 0.000000000000000000, 0.000000000000000000 ) ) ;
#129 = VECTOR ( 'NONE', #52, 1000.000000000000000 ) ;
#130 = EDGE_LOOP ( 'NONE', ( #41, #37, #108, #74 ) ) ;
#131 = DIRECTION ( 'NONE',  ( -1.000000000000000000, 0.000000000000000000, 0.000000000000000000 ) ) ;
#132 = ORIENTED_EDGE ( 'NONE', *, *, #63, .T. ) ;
#133 = DIRECTION ( 'NONE',  ( 1.000000000000000000, 0.000000000000000000, -0.000000000000000000 ) ) ;
#134 = PERSON_AND_ORGANIZATION ( #121, #43 ) ;
#135 = ADVANCED_FACE ( 'NONE', ( #62 ), #109, .F. ) ;
#136 = APPROVAL_PERSON_ORGANIZATION ( #152, #153, #174 ) ;
#137 = APPLICATION_CONTEXT ( 'configuration controlled 3d designs of mechanical parts and assemblies' ) ;
#138 = PRODUCT_DEFINITION ( 'UNKNOWN', '', #83, #97 ) ;
#139 = PERSON_AND_ORGANIZATION_ROLE ( 'creator' ) ;
#140 = ORIENTED_EDGE ( 'NONE', *, *, #35, .T. ) ;
#141 = PRODUCT ( 'Web Model 20017_20018', 'Web Model 20017_20018', '', ( #4 ) ) ;
#142 = ORIENTED_EDGE ( 'NONE', *, *, #24, .T. ) ;
#143 = CARTESIAN_POINT ( 'NONE',  ( 0.000000000000000000, 0.000000000000000000, 0.000000000000000000 ) ) ;
#144 = AXIS2_PLACEMENT_3D ( 'NONE', #96, #6, #93 ) ;
#145 = DIRECTION ( 'NONE',  ( -0.000000000000000000, -0.000000000000000000, -1.000000000000000000 ) ) ;
#146 = PERSON_AND_ORGANIZATION ( #121, #43 ) ;
#147 = EDGE_LOOP ( 'NONE', ( #95, #51 ) ) ;
#148 = DATE_AND_TIME ( #27, #86 ) ;
#149 = CC_DESIGN_APPROVAL ( #40, ( #83 ) ) ;
#150 = CC_DESIGN_PERSON_AND_ORGANIZATION_ASSIGNMENT ( #111, #72, ( #167 ) ) ;
#151 = CIRCLE ( 'NONE', #99, 12.69999999999999929 ) ;
#152 = PERSON_AND_ORGANIZATION ( #121, #43 ) ;
#153 = APPROVAL ( #71, 'UNSPECIFIED' ) ;
#154 = COORDINATED_UNIVERSAL_TIME_OFFSET ( 5, 0, .BEHIND. ) ;
#155 = DIRECTION ( 'NONE',  ( -1.000000000000000000, 0.000000000000000000, 0.000000000000000000 ) ) ;
#156 = AXIS2_PLACEMENT_3D ( 'NONE', #164, #33, #89 ) ;
#157 = CARTESIAN_POINT ( 'NONE',  ( -12.69999999999999929, 0.000000000000000000, 1.000000000000000000 ) ) ;
#158 = APPROVAL_ROLE ( '' ) ;
#159 = AXIS2_PLACEMENT_3D ( 'NONE', #75, #78, #128 ) ;
#160 = COORDINATED_UNIVERSAL_TIME_OFFSET ( 5, 0, .BEHIND. ) ;
#161 = SECURITY_CLASSIFICATION_LEVEL ( 'unclassified' ) ;
#162 = DIRECTION ( 'NONE',  ( -0.000000000000000000, -0.000000000000000000, -1.000000000000000000 ) ) ;
#163 = EDGE_CURVE ( 'NONE', #76, #103, #105, .T. ) ;
#164 = CARTESIAN_POINT ( 'NONE',  ( 0.000000000000000000, 0.000000000000000000, 1.000000000000000000 ) ) ;
#165 = VERTEX_POINT ( 'NONE', #10 ) ;
#166 = AXIS2_PLACEMENT_3D ( 'NONE', #143, #123, #124 ) ;
#167 = SECURITY_CLASSIFICATION ( '', '', #161 ) ;
#168 =( LENGTH_UNIT ( ) NAMED_UNIT ( * ) SI_UNIT ( .MILLI., .METRE. ) );
#169 = FACE_OUTER_BOUND ( 'NONE', #94, .T. ) ;
#170 = CARTESIAN_POINT ( 'NONE',  ( 0.000000000000000000, 0.000000000000000000, 1.000000000000000000 ) ) ;
#171 = DIRECTION ( 'NONE',  ( 0.000000000000000000, 0.000000000000000000, 1.000000000000000000 ) ) ;
#172 = CC_DESIGN_PERSON_AND_ORGANIZATION_ASSIGNMENT ( #146, #25, ( #141 ) ) ;
#173 = SHAPE_DEFINITION_REPRESENTATION ( #50, #28 ) ;
#174 = APPROVAL_ROLE ( '' ) ;
#175 = CYLINDRICAL_SURFACE ( 'NONE', #70, 12.69999999999999929 ) ;
ENDSEC;
END-ISO-10303-21;
