ISO-10303-21;
HEADER;
FILE_DESCRIPTION (( 'STEP AP203' ),
    '1' );
FILE_NAME ('Web Model 68806_68806.step',
    '2017-03-06T17:47:07',
    ( '' ),
    ( '' ),
    'SwSTEP 2.0',
    'SolidWorks 2016',
    '' );
FILE_SCHEMA (( 'CONFIG_CONTROL_DESIGN' ));
ENDSEC;

DATA;
#1 = ORIENTED_EDGE ( 'NONE', *, *, #170, .F. ) ;
#2 = APPROVAL_STATUS ( 'not_yet_approved' ) ;
#3 = COORDINATED_UNIVERSAL_TIME_OFFSET ( 5, 0, .BEHIND. ) ;
#4 = MANIFOLD_SOLID_BREP ( 'Boss-Extrude1', #105 ) ;
#5 = AXIS2_PLACEMENT_3D ( 'NONE', #101, #10, #173 ) ;
#6 = CARTESIAN_POINT ( 'NONE',  ( 10.00000000000000000, 1.224646799147353300E-015, 1.000000000000000000 ) ) ;
#7 = DIRECTION ( 'NONE',  ( -0.0000000000000000000, -0.0000000000000000000, -1.000000000000000000 ) ) ;
#8 = ORIENTED_EDGE ( 'NONE', *, *, #87, .T. ) ;
#9 = DIRECTION ( 'NONE',  ( 1.000000000000000000, 0.0000000000000000000, -0.0000000000000000000 ) ) ;
#10 = DIRECTION ( 'NONE',  ( 0.0000000000000000000, 0.0000000000000000000, 1.000000000000000000 ) ) ;
#11 = PERSON_AND_ORGANIZATION ( #165, #22 ) ;
#12 = APPROVAL_ROLE ( '' ) ;
#13 = LINE ( 'NONE', #129, #93 ) ;
#14 = AXIS2_PLACEMENT_3D ( 'NONE', #146, #131, #37 ) ;
#15 = APPROVAL ( #2, 'UNSPECIFIED' ) ;
#16 = CIRCLE ( 'NONE', #89, 10.00000000000000000 ) ;
#17 = VERTEX_POINT ( 'NONE', #102 ) ;
#18 = CARTESIAN_POINT ( 'NONE',  ( 0.0000000000000000000, 0.0000000000000000000, 0.0000000000000000000 ) ) ;
#19 = DATE_TIME_ROLE ( 'creation_date' ) ;
#20 = EDGE_CURVE ( 'NONE', #167, #72, #32, .T. ) ;
#21 = DIRECTION ( 'NONE',  ( -1.000000000000000000, 0.0000000000000000000, 0.0000000000000000000 ) ) ;
#22 = ORGANIZATION ( 'UNSPECIFIED', 'UNSPECIFIED', '' ) ;
#23 = CARTESIAN_POINT ( 'NONE',  ( 10.00000000000000000, 1.224646799147353300E-015, 1.000000000000000000 ) ) ;
#24 = CARTESIAN_POINT ( 'NONE',  ( 0.0000000000000000000, 0.0000000000000000000, -1.000000000000000000 ) ) ;
#25 = CC_DESIGN_APPROVAL ( #15, ( #52 ) ) ;
#26 = FACE_OUTER_BOUND ( 'NONE', #119, .T. ) ;
#27 = LOCAL_TIME ( 12, 47, 7.000000000000000000, #94 ) ;
#28 = PRODUCT_DEFINITION_SHAPE ( 'NONE', 'NONE',  #52 ) ;
#29 = EDGE_LOOP ( 'NONE', ( #1, #70, #106, #8 ) ) ;
#30 = AXIS2_PLACEMENT_3D ( 'NONE', #56, #116, #162 ) ;
#31 = DATE_AND_TIME ( #38, #147 ) ;
#32 = CIRCLE ( 'NONE', #30, 10.00000000000000000 ) ;
#33 = APPLICATION_CONTEXT ( 'configuration controlled 3d designs of mechanical parts and assemblies' ) ;
#34 = APPROVAL_STATUS ( 'not_yet_approved' ) ;
#35 = CC_DESIGN_PERSON_AND_ORGANIZATION_ASSIGNMENT ( #47, #65, ( #52 ) ) ;
#36 = DIRECTION ( 'NONE',  ( 1.000000000000000000, 0.0000000000000000000, -0.0000000000000000000 ) ) ;
#37 = DIRECTION ( 'NONE',  ( 1.000000000000000000, 0.0000000000000000000, 0.0000000000000000000 ) ) ;
#38 = CALENDAR_DATE ( 2017, 6, 3 ) ;
#39 = CALENDAR_DATE ( 2017, 6, 3 ) ;
#40 = LINE ( 'NONE', #6, #161 ) ;
#41 = PERSON_AND_ORGANIZATION_ROLE ( 'creator' ) ;
#42 = ORIENTED_EDGE ( 'NONE', *, *, #74, .T. ) ;
#43 = DATE_AND_TIME ( #39, #121 ) ;
#44 =( GEOMETRIC_REPRESENTATION_CONTEXT ( 3 ) GLOBAL_UNCERTAINTY_ASSIGNED_CONTEXT ( ( #152 ) ) GLOBAL_UNIT_ASSIGNED_CONTEXT ( ( #127, #68, #111 ) ) REPRESENTATION_CONTEXT ( 'NONE', 'WORKASPACE' ) );
#45 = CC_DESIGN_DATE_AND_TIME_ASSIGNMENT ( #88, #19, ( #52 ) ) ;
#46 = PERSON_AND_ORGANIZATION ( #165, #22 ) ;
#47 = PERSON_AND_ORGANIZATION ( #165, #22 ) ;
#48 = APPROVAL_PERSON_ORGANIZATION ( #46, #15, #128 ) ;
#49 = VERTEX_POINT ( 'NONE', #135 ) ;
#50 = APPLICATION_PROTOCOL_DEFINITION ( 'international standard', 'config_control_design', 1994, #33 ) ;
#51 = COORDINATED_UNIVERSAL_TIME_OFFSET ( 5, 0, .BEHIND. ) ;
#52 = PRODUCT_DEFINITION ( 'UNKNOWN', '', #57, #150 ) ;
#53 = DIRECTION ( 'NONE',  ( -1.000000000000000000, 0.0000000000000000000, 0.0000000000000000000 ) ) ;
#54 = CARTESIAN_POINT ( 'NONE',  ( -10.00000000000000000, 0.0000000000000000000, 1.000000000000000000 ) ) ;
#55 = PERSON_AND_ORGANIZATION_ROLE ( 'design_owner' ) ;
#56 = CARTESIAN_POINT ( 'NONE',  ( 0.0000000000000000000, 0.0000000000000000000, 1.000000000000000000 ) ) ;
#57 = PRODUCT_DEFINITION_FORMATION_WITH_SPECIFIED_SOURCE ( 'ANY', '', #151, .NOT_KNOWN. ) ;
#58 = ORIENTED_EDGE ( 'NONE', *, *, #153, .F. ) ;
#59 = PERSON_AND_ORGANIZATION ( #165, #22 ) ;
#60 = CALENDAR_DATE ( 2017, 6, 3 ) ;
#61 = APPROVAL_ROLE ( '' ) ;
#62 = EDGE_CURVE ( 'NONE', #72, #167, #16, .T. ) ;
#63 = LOCAL_TIME ( 12, 47, 7.000000000000000000, #164 ) ;
#64 = AXIS2_PLACEMENT_3D ( 'NONE', #115, #91, #21 ) ;
#65 = PERSON_AND_ORGANIZATION_ROLE ( 'creator' ) ;
#66 = APPROVAL ( #34, 'UNSPECIFIED' ) ;
#67 = DIRECTION ( 'NONE',  ( 0.0000000000000000000, 0.0000000000000000000, 1.000000000000000000 ) ) ;
#68 =( NAMED_UNIT ( * ) PLANE_ANGLE_UNIT ( ) SI_UNIT ( $, .RADIAN. ) );
#69 = DIRECTION ( 'NONE',  ( 0.0000000000000000000, 0.0000000000000000000, 1.000000000000000000 ) ) ;
#70 = ORIENTED_EDGE ( 'NONE', *, *, #20, .F. ) ;
#71 = ORIENTED_EDGE ( 'NONE', *, *, #74, .F. ) ;
#72 = VERTEX_POINT ( 'NONE', #23 ) ;
#73 = PERSON_AND_ORGANIZATION ( #165, #22 ) ;
#74 = EDGE_CURVE ( 'NONE', #49, #17, #157, .T. ) ;
#75 = CC_DESIGN_APPROVAL ( #66, ( #57 ) ) ;
#76 = PERSON_AND_ORGANIZATION_ROLE ( 'classification_officer' ) ;
#77 = EDGE_LOOP ( 'NONE', ( #172, #126, #42, #58 ) ) ;
#78 = DIRECTION ( 'NONE',  ( -0.0000000000000000000, -0.0000000000000000000, -1.000000000000000000 ) ) ;
#79 = DIRECTION ( 'NONE',  ( 1.000000000000000000, 0.0000000000000000000, 0.0000000000000000000 ) ) ;
#80 = PERSON_AND_ORGANIZATION ( #165, #22 ) ;
#81 = AXIS2_PLACEMENT_3D ( 'NONE', #24, #130, #9 ) ;
#82 = CC_DESIGN_PERSON_AND_ORGANIZATION_ASSIGNMENT ( #80, #41, ( #57 ) ) ;
#83 = COORDINATED_UNIVERSAL_TIME_OFFSET ( 5, 0, .BEHIND. ) ;
#84 = APPROVAL_DATE_TIME ( #117, #103 ) ;
#85 = DATE_AND_TIME ( #107, #63 ) ;
#86 = CC_DESIGN_APPROVAL ( #103, ( #90 ) ) ;
#87 = EDGE_CURVE ( 'NONE', #17, #49, #136, .T. ) ;
#88 = DATE_AND_TIME ( #148, #113 ) ;
#89 = AXIS2_PLACEMENT_3D ( 'NONE', #97, #114, #79 ) ;
#90 = SECURITY_CLASSIFICATION ( '', '', #140 ) ;
#91 = DIRECTION ( 'NONE',  ( -0.0000000000000000000, -0.0000000000000000000, -1.000000000000000000 ) ) ;
#92 = APPROVAL_PERSON_ORGANIZATION ( #11, #66, #12 ) ;
#93 = VECTOR ( 'NONE', #7, 1000.000000000000000 ) ;
#94 = COORDINATED_UNIVERSAL_TIME_OFFSET ( 5, 0, .BEHIND. ) ;
#95 = CC_DESIGN_PERSON_AND_ORGANIZATION_ASSIGNMENT ( #169, #133, ( #57 ) ) ;
#96 = FACE_OUTER_BOUND ( 'NONE', #168, .T. ) ;
#97 = CARTESIAN_POINT ( 'NONE',  ( 0.0000000000000000000, 0.0000000000000000000, 1.000000000000000000 ) ) ;
#98 = PLANE ( 'NONE',  #163 ) ;
#99 = PRODUCT_RELATED_PRODUCT_CATEGORY ( 'detail', '', ( #151 ) ) ;
#100 = ORIENTED_EDGE ( 'NONE', *, *, #87, .F. ) ;
#101 = CARTESIAN_POINT ( 'NONE',  ( 0.0000000000000000000, 0.0000000000000000000, -1.000000000000000000 ) ) ;
#102 = CARTESIAN_POINT ( 'NONE',  ( -10.00000000000000000, 0.0000000000000000000, -1.000000000000000000 ) ) ;
#103 = APPROVAL ( #154, 'UNSPECIFIED' ) ;
#104 = ADVANCED_FACE ( 'NONE', ( #112 ), #122, .T. ) ;
#105 = CLOSED_SHELL ( 'NONE', ( #104, #137, #139, #124 ) ) ;
#106 = ORIENTED_EDGE ( 'NONE', *, *, #153, .T. ) ;
#107 = CALENDAR_DATE ( 2017, 6, 3 ) ;
#108 = MECHANICAL_CONTEXT ( 'NONE', #33, 'mechanical' ) ;
#109 = DIRECTION ( 'NONE',  ( -0.0000000000000000000, -0.0000000000000000000, -1.000000000000000000 ) ) ;
#110 = AXIS2_PLACEMENT_3D ( 'NONE', #18, #67, #143 ) ;
#111 =( NAMED_UNIT ( * ) SI_UNIT ( $, .STERADIAN. ) SOLID_ANGLE_UNIT ( ) );
#112 = FACE_OUTER_BOUND ( 'NONE', #77, .T. ) ;
#113 = LOCAL_TIME ( 12, 47, 7.000000000000000000, #51 ) ;
#114 = DIRECTION ( 'NONE',  ( 0.0000000000000000000, 0.0000000000000000000, 1.000000000000000000 ) ) ;
#115 = CARTESIAN_POINT ( 'NONE',  ( 0.0000000000000000000, 0.0000000000000000000, 1.000000000000000000 ) ) ;
#116 = DIRECTION ( 'NONE',  ( 0.0000000000000000000, 0.0000000000000000000, 1.000000000000000000 ) ) ;
#117 = DATE_AND_TIME ( #60, #27 ) ;
#118 = ADVANCED_BREP_SHAPE_REPRESENTATION ( 'Web Model 68806_68806', ( #4, #110 ), #44 ) ;
#119 = EDGE_LOOP ( 'NONE', ( #100, #71 ) ) ;
#120 = CC_DESIGN_PERSON_AND_ORGANIZATION_ASSIGNMENT ( #59, #76, ( #90 ) ) ;
#121 = LOCAL_TIME ( 12, 47, 7.000000000000000000, #83 ) ;
#122 = CYLINDRICAL_SURFACE ( 'NONE', #64, 10.00000000000000000 ) ;
#123 = APPROVAL_DATE_TIME ( #43, #66 ) ;
#124 = ADVANCED_FACE ( 'NONE', ( #26 ), #145, .F. ) ;
#125 = PERSON_AND_ORGANIZATION ( #165, #22 ) ;
#126 = ORIENTED_EDGE ( 'NONE', *, *, #170, .T. ) ;
#127 =( LENGTH_UNIT ( ) NAMED_UNIT ( * ) SI_UNIT ( .MILLI., .METRE. ) );
#128 = APPROVAL_ROLE ( '' ) ;
#129 = CARTESIAN_POINT ( 'NONE',  ( -10.00000000000000000, 0.0000000000000000000, 1.000000000000000000 ) ) ;
#130 = DIRECTION ( 'NONE',  ( 0.0000000000000000000, 0.0000000000000000000, 1.000000000000000000 ) ) ;
#131 = DIRECTION ( 'NONE',  ( 0.0000000000000000000, 0.0000000000000000000, 1.000000000000000000 ) ) ;
#132 = CARTESIAN_POINT ( 'NONE',  ( 0.0000000000000000000, 0.0000000000000000000, 1.000000000000000000 ) ) ;
#133 = PERSON_AND_ORGANIZATION_ROLE ( 'design_supplier' ) ;
#134 = APPROVAL_DATE_TIME ( #85, #15 ) ;
#135 = CARTESIAN_POINT ( 'NONE',  ( 10.00000000000000000, 1.224646799147353300E-015, -1.000000000000000000 ) ) ;
#136 = CIRCLE ( 'NONE', #5, 10.00000000000000000 ) ;
#137 = ADVANCED_FACE ( 'NONE', ( #142 ), #159, .T. ) ;
#138 = ORIENTED_EDGE ( 'NONE', *, *, #62, .T. ) ;
#139 = ADVANCED_FACE ( 'NONE', ( #96 ), #98, .T. ) ;
#140 = SECURITY_CLASSIFICATION_LEVEL ( 'unclassified' ) ;
#141 = DATE_TIME_ROLE ( 'classification_date' ) ;
#142 = FACE_OUTER_BOUND ( 'NONE', #29, .T. ) ;
#143 = DIRECTION ( 'NONE',  ( 1.000000000000000000, 0.0000000000000000000, 0.0000000000000000000 ) ) ;
#144 = SHAPE_DEFINITION_REPRESENTATION ( #28, #118 ) ;
#145 = PLANE ( 'NONE',  #81 ) ;
#146 = CARTESIAN_POINT ( 'NONE',  ( 0.0000000000000000000, 0.0000000000000000000, -1.000000000000000000 ) ) ;
#147 = LOCAL_TIME ( 12, 47, 7.000000000000000000, #3 ) ;
#148 = CALENDAR_DATE ( 2017, 6, 3 ) ;
#149 = ORIENTED_EDGE ( 'NONE', *, *, #20, .T. ) ;
#150 = DESIGN_CONTEXT ( 'detailed design', #171, 'design' ) ;
#151 = PRODUCT ( 'Web Model 68806_68806', 'Web Model 68806_68806', '', ( #108 ) ) ;
#152 = UNCERTAINTY_MEASURE_WITH_UNIT (LENGTH_MEASURE( 1.000000000000000100E-005 ), #127, 'distance_accuracy_value', 'NONE');
#153 = EDGE_CURVE ( 'NONE', #167, #17, #13, .T. ) ;
#154 = APPROVAL_STATUS ( 'not_yet_approved' ) ;
#155 = CC_DESIGN_PERSON_AND_ORGANIZATION_ASSIGNMENT ( #125, #55, ( #151 ) ) ;
#156 = APPLICATION_PROTOCOL_DEFINITION ( 'international standard', 'config_control_design', 1994, #171 ) ;
#157 = CIRCLE ( 'NONE', #14, 10.00000000000000000 ) ;
#158 = CARTESIAN_POINT ( 'NONE',  ( 0.0000000000000000000, 0.0000000000000000000, 1.000000000000000000 ) ) ;
#159 = CYLINDRICAL_SURFACE ( 'NONE', #175, 10.00000000000000000 ) ;
#160 = CC_DESIGN_SECURITY_CLASSIFICATION ( #90, ( #57 ) ) ;
#161 = VECTOR ( 'NONE', #109, 1000.000000000000000 ) ;
#162 = DIRECTION ( 'NONE',  ( 1.000000000000000000, 0.0000000000000000000, 0.0000000000000000000 ) ) ;
#163 = AXIS2_PLACEMENT_3D ( 'NONE', #158, #69, #36 ) ;
#164 = COORDINATED_UNIVERSAL_TIME_OFFSET ( 5, 0, .BEHIND. ) ;
#165 = PERSON ( 'UNSPECIFIED', 'UNSPECIFIED', 'UNSPECIFIED', ('UNSPECIFIED'), ('UNSPECIFIED'), ('UNSPECIFIED') ) ;
#166 = APPROVAL_PERSON_ORGANIZATION ( #73, #103, #61 ) ;
#167 = VERTEX_POINT ( 'NONE', #54 ) ;
#168 = EDGE_LOOP ( 'NONE', ( #149, #138 ) ) ;
#169 = PERSON_AND_ORGANIZATION ( #165, #22 ) ;
#170 = EDGE_CURVE ( 'NONE', #72, #49, #40, .T. ) ;
#171 = APPLICATION_CONTEXT ( 'configuration controlled 3d designs of mechanical parts and assemblies' ) ;
#172 = ORIENTED_EDGE ( 'NONE', *, *, #62, .F. ) ;
#173 = DIRECTION ( 'NONE',  ( 1.000000000000000000, 0.0000000000000000000, 0.0000000000000000000 ) ) ;
#174 = CC_DESIGN_DATE_AND_TIME_ASSIGNMENT ( #31, #141, ( #90 ) ) ;
#175 = AXIS2_PLACEMENT_3D ( 'NONE', #132, #78, #53 ) ;
ENDSEC;
END-ISO-10303-21;
