ISO-10303-21;
HEADER;
FILE_DESCRIPTION (( 'STEP AP214' ),
    '1' );
FILE_NAME ('19073-E0W.STEP',
    '2009-12-21T17:09:14',
    ( ' ' ),
    ( ' ' ),
    'SwSTEP 2.0',
    'SolidWorks 2009',
    '' );
FILE_SCHEMA (( 'AUTOMOTIVE_DESIGN' ));
ENDSEC;

DATA;
#1 = EDGE_LOOP ( 'NONE', ( #65, #56, #2, #61 ) ) ;
#2 = ORIENTED_EDGE ( 'NONE', *, *, #26, .T. ) ;
#3 = ADVANCED_FACE ( 'NONE', ( #86 ), #76, .F. ) ;
#4 = EDGE_CURVE ( 'NONE', #51, #17, #68, .T. ) ;
#5 = ORIENTED_EDGE ( 'NONE', *, *, #53, .T. ) ;
#6 = EDGE_LOOP ( 'NONE', ( #8, #9 ) ) ;
#7 = EDGE_CURVE ( 'NONE', #24, #64, #105, .T. ) ;
#8 = ORIENTED_EDGE ( 'NONE', *, *, #16, .F. ) ;
#9 = ORIENTED_EDGE ( 'NONE', *, *, #25, .F. ) ;
#10 = ADVANCED_FACE ( 'NONE', ( #100 ), #118, .F. ) ;
#11 = ORIENTED_EDGE ( 'NONE', *, *, #26, .F. ) ;
#12 = DIRECTION ( 'NONE',  ( 1.000000000000000000, 0.0000000000000000000, 0.0000000000000000000 ) ) ;
#13 = ORIENTED_EDGE ( 'NONE', *, *, #7, .F. ) ;
#14 = AXIS2_PLACEMENT_3D ( 'NONE', #27, #12, #15 ) ;
#15 = DIRECTION ( 'NONE',  ( 0.0000000000000000000, 0.0000000000000000000, -1.000000000000000000 ) ) ;
#16 = EDGE_CURVE ( 'NONE', #28, #22, #114, .T. ) ;
#17 = VERTEX_POINT ( 'NONE', #124 ) ;
#18 = EDGE_LOOP ( 'NONE', ( #30, #29, #11, #59, #50 ) ) ;
#19 = MANIFOLD_SOLID_BREP ( 'NONE', #31 ) ;
#20 = EDGE_CURVE ( 'NONE', #22, #24, #40, .T. ) ;
#21 = ADVANCED_FACE ( 'NONE', ( #141 ), #175, .T. ) ;
#22 = VERTEX_POINT ( 'NONE', #173 ) ;
#23 = ORIENTED_EDGE ( 'NONE', *, *, #54, .F. ) ;
#24 = VERTEX_POINT ( 'NONE', #163 ) ;
#25 = EDGE_CURVE ( 'NONE', #22, #28, #150, .T. ) ;
#26 = EDGE_CURVE ( 'NONE', #17, #24, #181, .T. ) ;
#27 = CARTESIAN_POINT ( 'NONE',  ( 0.0000000000000000000, 0.0000000000000000000, 39.30999726177417100 ) ) ;
#28 = VERTEX_POINT ( 'NONE', #154 ) ;
#29 = ORIENTED_EDGE ( 'NONE', *, *, #20, .T. ) ;
#30 = ORIENTED_EDGE ( 'NONE', *, *, #16, .T. ) ;
#31 = CLOSED_SHELL ( 'NONE', ( #21, #47, #3, #10, #60 ) ) ;
#32 =( NAMED_UNIT ( * ) PLANE_ANGLE_UNIT ( ) SI_UNIT ( $, .RADIAN. ) );
#33 =( LENGTH_UNIT ( ) NAMED_UNIT ( * ) SI_UNIT ( .MILLI., .METRE. ) );
#34 =( GEOMETRIC_REPRESENTATION_CONTEXT ( 3 ) GLOBAL_UNCERTAINTY_ASSIGNED_CONTEXT ( ( #35 ) ) GLOBAL_UNIT_ASSIGNED_CONTEXT ( ( #135, #121, #130 ) ) REPRESENTATION_CONTEXT ( 'NONE', 'WORKASPACE' ) );
#35 = UNCERTAINTY_MEASURE_WITH_UNIT (LENGTH_MEASURE( 1.000000000000000100E-005 ), #135, 'distance_accuracy_value', 'NONE');
#36 =( NAMED_UNIT ( * ) PLANE_ANGLE_UNIT ( ) SI_UNIT ( $, .RADIAN. ) );
#37 =( NAMED_UNIT ( * ) SI_UNIT ( $, .STERADIAN. ) SOLID_ANGLE_UNIT ( ) );
#38 = UNCERTAINTY_MEASURE_WITH_UNIT (LENGTH_MEASURE( 1.000000000000000100E-005 ), #136, 'distance_accuracy_value', 'NONE');
#39 =( NAMED_UNIT ( * ) SI_UNIT ( $, .STERADIAN. ) SOLID_ANGLE_UNIT ( ) );
#40 = LINE ( 'NONE', #41, #42 ) ;
#41 = CARTESIAN_POINT ( 'NONE',  ( -12.50000000000000000, 1.530757942277971600E-015, 7.977150532203490100 ) ) ;
#42 = VECTOR ( 'NONE', #43, 1000.000000000000000 ) ;
#43 = DIRECTION ( 'NONE',  ( -0.0000000000000000000, -0.0000000000000000000, 1.000000000000000000 ) ) ;
#44 =( GEOMETRIC_REPRESENTATION_CONTEXT ( 3 ) GLOBAL_UNCERTAINTY_ASSIGNED_CONTEXT ( ( #38 ) ) GLOBAL_UNIT_ASSIGNED_CONTEXT ( ( #136, #36, #37 ) ) REPRESENTATION_CONTEXT ( 'NONE', 'WORKASPACE' ) );
#45 =( GEOMETRIC_REPRESENTATION_CONTEXT ( 3 ) GLOBAL_UNCERTAINTY_ASSIGNED_CONTEXT ( ( #69 ) ) GLOBAL_UNIT_ASSIGNED_CONTEXT ( ( #33, #32, #39 ) ) REPRESENTATION_CONTEXT ( 'NONE', 'WORKASPACE' ) );
#46 = ORIENTED_EDGE ( 'NONE', *, *, #48, .T. ) ;
#47 = ADVANCED_FACE ( 'NONE', ( #153 ), #211, .F. ) ;
#48 = EDGE_CURVE ( 'NONE', #28, #62, #190, .T. ) ;
#49 = ORIENTED_EDGE ( 'NONE', *, *, #4, .F. ) ;
#50 = ORIENTED_EDGE ( 'NONE', *, *, #48, .F. ) ;
#51 = VERTEX_POINT ( 'NONE', #189 ) ;
#52 = ORIENTED_EDGE ( 'NONE', *, *, #67, .T. ) ;
#53 = EDGE_CURVE ( 'NONE', #51, #64, #198, .T. ) ;
#54 = EDGE_CURVE ( 'NONE', #64, #62, #196, .T. ) ;
#55 = EDGE_LOOP ( 'NONE', ( #49, #5, #63, #52 ) ) ;
#56 = ORIENTED_EDGE ( 'NONE', *, *, #4, .T. ) ;
#57 = ORIENTED_EDGE ( 'NONE', *, *, #20, .F. ) ;
#58 = ORIENTED_EDGE ( 'NONE', *, *, #25, .T. ) ;
#59 = ORIENTED_EDGE ( 'NONE', *, *, #67, .F. ) ;
#60 = ADVANCED_FACE ( 'NONE', ( #209 ), #220, .T. ) ;
#61 = ORIENTED_EDGE ( 'NONE', *, *, #7, .T. ) ;
#62 = VERTEX_POINT ( 'NONE', #231 ) ;
#63 = ORIENTED_EDGE ( 'NONE', *, *, #54, .T. ) ;
#64 = VERTEX_POINT ( 'NONE', #223 ) ;
#65 = ORIENTED_EDGE ( 'NONE', *, *, #53, .F. ) ;
#66 = EDGE_LOOP ( 'NONE', ( #57, #58, #46, #23, #13 ) ) ;
#67 = EDGE_CURVE ( 'NONE', #62, #17, #214, .T. ) ;
#68 = CIRCLE ( 'NONE', #14, 38.60000000000000900 ) ;
#69 = UNCERTAINTY_MEASURE_WITH_UNIT (LENGTH_MEASURE( 1.000000000000000100E-005 ), #33, 'distance_accuracy_value', 'NONE');
#70 = SURFACE_SIDE_STYLE ('',( #81 ) ) ;
#71 =( LENGTH_UNIT ( ) NAMED_UNIT ( * ) SI_UNIT ( .MILLI., .METRE. ) );
#72 =( GEOMETRIC_REPRESENTATION_CONTEXT ( 3 ) GLOBAL_UNCERTAINTY_ASSIGNED_CONTEXT ( ( #90 ) ) GLOBAL_UNIT_ASSIGNED_CONTEXT ( ( #71, #82, #74 ) ) REPRESENTATION_CONTEXT ( 'NONE', 'WORKASPACE' ) );
#73 = DIRECTION ( 'NONE',  ( -1.000000000000000000, 0.0000000000000000000, 0.0000000000000000000 ) ) ;
#74 =( NAMED_UNIT ( * ) SI_UNIT ( $, .STERADIAN. ) SOLID_ANGLE_UNIT ( ) );
#75 = STYLED_ITEM ( 'NONE', ( #80 ), #3 ) ;
#76 = SPHERICAL_SURFACE ( 'NONE', #85, 38.60000000000000900 ) ;
#77 = MECHANICAL_DESIGN_GEOMETRIC_PRESENTATION_REPRESENTATION (  '', ( #75 ), #72 ) ;
#78 = DIRECTION ( 'NONE',  ( 0.0000000000000000000, 1.000000000000000000, 0.0000000000000000000 ) ) ;
#79 = PRESENTATION_LAYER_ASSIGNMENT (  '', '', ( #75 ) ) ;
#80 = PRESENTATION_STYLE_ASSIGNMENT (( #88 ) ) ;
#81 = SURFACE_STYLE_FILL_AREA ( #89 ) ;
#82 =( NAMED_UNIT ( * ) PLANE_ANGLE_UNIT ( ) SI_UNIT ( $, .RADIAN. ) );
#83 = FILL_AREA_STYLE_COLOUR ( '', #87 ) ;
#84 = CARTESIAN_POINT ( 'NONE',  ( 0.0000000000000000000, 0.0000000000000000000, 39.30999726177417100 ) ) ;
#85 = AXIS2_PLACEMENT_3D ( 'NONE', #84, #73, #78 ) ;
#86 = FACE_OUTER_BOUND ( 'NONE', #1, .T. ) ;
#87 = COLOUR_RGB ( '',0.9568627450980391500, 0.9490196078431372100, 0.9607843137254902200 ) ;
#88 = SURFACE_STYLE_USAGE ( .BOTH. , #70 ) ;
#89 = FILL_AREA_STYLE ('',( #83 ) ) ;
#90 = UNCERTAINTY_MEASURE_WITH_UNIT (LENGTH_MEASURE( 1.000000000000000100E-005 ), #71, 'distance_accuracy_value', 'NONE');
#91 =( GEOMETRIC_REPRESENTATION_CONTEXT ( 3 ) GLOBAL_UNCERTAINTY_ASSIGNED_CONTEXT ( ( #92 ) ) GLOBAL_UNIT_ASSIGNED_CONTEXT ( ( #106, #107, #103 ) ) REPRESENTATION_CONTEXT ( 'NONE', 'WORKASPACE' ) );
#92 = UNCERTAINTY_MEASURE_WITH_UNIT (LENGTH_MEASURE( 1.000000000000000100E-005 ), #106, 'distance_accuracy_value', 'NONE');
#93 = SURFACE_STYLE_USAGE ( .BOTH. , #97 ) ;
#94 = AXIS2_PLACEMENT_3D ( 'NONE', #95, #108, #98 ) ;
#95 = CARTESIAN_POINT ( 'NONE',  ( 0.0000000000000000000, 0.0000000000000000000, 2.790002738225834600 ) ) ;
#96 = PRESENTATION_STYLE_ASSIGNMENT (( #93 ) ) ;
#97 = SURFACE_SIDE_STYLE ('',( #104 ) ) ;
#98 = DIRECTION ( 'NONE',  ( 1.000000000000000000, 0.0000000000000000000, 0.0000000000000000000 ) ) ;
#99 = MECHANICAL_DESIGN_GEOMETRIC_PRESENTATION_REPRESENTATION (  '', ( #102 ), #91 ) ;
#100 = FACE_OUTER_BOUND ( 'NONE', #6, .T. ) ;
#101 = FILL_AREA_STYLE_COLOUR ( '', #109 ) ;
#102 = STYLED_ITEM ( 'NONE', ( #96 ), #10 ) ;
#103 =( NAMED_UNIT ( * ) SI_UNIT ( $, .STERADIAN. ) SOLID_ANGLE_UNIT ( ) );
#104 = SURFACE_STYLE_FILL_AREA ( #110 ) ;
#105 = CIRCLE ( 'NONE', #94, 12.50000000000000000 ) ;
#106 =( LENGTH_UNIT ( ) NAMED_UNIT ( * ) SI_UNIT ( .MILLI., .METRE. ) );
#107 =( NAMED_UNIT ( * ) PLANE_ANGLE_UNIT ( ) SI_UNIT ( $, .RADIAN. ) );
#108 = DIRECTION ( 'NONE',  ( -0.0000000000000000000, -0.0000000000000000000, 1.000000000000000000 ) ) ;
#109 = COLOUR_RGB ( '',0.9568627450980391500, 0.9490196078431372100, 0.9607843137254902200 ) ;
#110 = FILL_AREA_STYLE ('',( #101 ) ) ;
#111 = PRESENTATION_LAYER_ASSIGNMENT (  '', '', ( #102 ) ) ;
#112 = DIRECTION ( 'NONE',  ( 0.0000000000000000000, -0.0000000000000000000, 1.000000000000000000 ) ) ;
#113 = CARTESIAN_POINT ( 'NONE',  ( 0.0000000000000000000, 0.0000000000000000000, -2.790002738225834600 ) ) ;
#114 = CIRCLE ( 'NONE', #119, 12.50000000000000000 ) ;
#115 = MECHANICAL_DESIGN_GEOMETRIC_PRESENTATION_REPRESENTATION (  '', ( #125 ), #34 ) ;
#116 = DIRECTION ( 'NONE',  ( -0.0000000000000000000, -0.0000000000000000000, 1.000000000000000000 ) ) ;
#117 = SURFACE_STYLE_USAGE ( .BOTH. , #127 ) ;
#118 = PLANE ( 'NONE',  #120 ) ;
#119 = AXIS2_PLACEMENT_3D ( 'NONE', #113, #116, #128 ) ;
#120 = AXIS2_PLACEMENT_3D ( 'NONE', #122, #112, #132 ) ;
#121 =( NAMED_UNIT ( * ) PLANE_ANGLE_UNIT ( ) SI_UNIT ( $, .RADIAN. ) );
#122 = CARTESIAN_POINT ( 'NONE',  ( 0.0000000000000000000, 6.429395695523603200E-016, -2.790002738225834600 ) ) ;
#123 = FILL_AREA_STYLE ('',( #129 ) ) ;
#124 = CARTESIAN_POINT ( 'NONE',  ( 0.0000000000000000000, 12.50000000000000400, 2.790002738225837700 ) ) ;
#125 = STYLED_ITEM ( 'NONE', ( #131 ), #19 ) ;
#126 = SURFACE_STYLE_FILL_AREA ( #123 ) ;
#127 = SURFACE_SIDE_STYLE ('',( #126 ) ) ;
#128 = DIRECTION ( 'NONE',  ( 1.000000000000000000, 0.0000000000000000000, 0.0000000000000000000 ) ) ;
#129 = FILL_AREA_STYLE_COLOUR ( '', #133 ) ;
#130 =( NAMED_UNIT ( * ) SI_UNIT ( $, .STERADIAN. ) SOLID_ANGLE_UNIT ( ) );
#131 = PRESENTATION_STYLE_ASSIGNMENT (( #117 ) ) ;
#132 = DIRECTION ( 'NONE',  ( 1.000000000000000000, 0.0000000000000000000, 0.0000000000000000000 ) ) ;
#133 = COLOUR_RGB ( '',0.7960784313725489700, 0.8235294117647058400, 0.9372549019607843100 ) ;
#134 = PRESENTATION_LAYER_ASSIGNMENT (  '', '', ( #125 ) ) ;
#135 =( LENGTH_UNIT ( ) NAMED_UNIT ( * ) SI_UNIT ( .MILLI., .METRE. ) );
#136 =( LENGTH_UNIT ( ) NAMED_UNIT ( * ) SI_UNIT ( .MILLI., .METRE. ) );
#137 = MECHANICAL_DESIGN_GEOMETRIC_PRESENTATION_REPRESENTATION (  '', ( #139 ), #44 ) ;
#138 = PRESENTATION_LAYER_ASSIGNMENT (  '', '', ( #139 ) ) ;
#139 = STYLED_ITEM ( 'NONE', ( #140 ), #21 ) ;
#140 = PRESENTATION_STYLE_ASSIGNMENT (( #142 ) ) ;
#141 = FACE_OUTER_BOUND ( 'NONE', #18, .T. ) ;
#142 = SURFACE_STYLE_USAGE ( .BOTH. , #143 ) ;
#143 = SURFACE_SIDE_STYLE ('',( #144 ) ) ;
#144 = SURFACE_STYLE_FILL_AREA ( #145 ) ;
#145 = FILL_AREA_STYLE ('',( #146 ) ) ;
#146 = FILL_AREA_STYLE_COLOUR ( '', #147 ) ;
#147 = COLOUR_RGB ( '',0.9568627450980391500, 0.9490196078431372100, 0.9607843137254902200 ) ;
#148 = CARTESIAN_POINT ( 'NONE',  ( 0.0000000000000000000, 0.0000000000000000000, 7.977150532203490100 ) ) ;
#149 = PRESENTATION_STYLE_ASSIGNMENT (( #157 ) ) ;
#150 = CIRCLE ( 'NONE', #179, 12.50000000000000000 ) ;
#151 = STYLED_ITEM ( 'NONE', ( #149 ), #47 ) ;
#152 = SURFACE_SIDE_STYLE ('',( #170 ) ) ;
#153 = FACE_OUTER_BOUND ( 'NONE', #55, .T. ) ;
#154 = CARTESIAN_POINT ( 'NONE',  ( 12.50000000000000000, 0.0000000000000000000, -2.790002738225834600 ) ) ;
#155 = DIRECTION ( 'NONE',  ( -0.0000000000000000000, -0.0000000000000000000, 1.000000000000000000 ) ) ;
#156 = DIRECTION ( 'NONE',  ( 1.000000000000000000, 0.0000000000000000000, 0.0000000000000000000 ) ) ;
#157 = SURFACE_STYLE_USAGE ( .BOTH. , #152 ) ;
#158 = MECHANICAL_DESIGN_GEOMETRIC_PRESENTATION_REPRESENTATION (  '', ( #151 ), #164 ) ;
#159 = PRESENTATION_LAYER_ASSIGNMENT (  '', '', ( #151 ) ) ;
#160 = UNCERTAINTY_MEASURE_WITH_UNIT (LENGTH_MEASURE( 1.000000000000000100E-005 ), #169, 'distance_accuracy_value', 'NONE');
#161 =( NAMED_UNIT ( * ) SI_UNIT ( $, .STERADIAN. ) SOLID_ANGLE_UNIT ( ) );
#162 =( NAMED_UNIT ( * ) PLANE_ANGLE_UNIT ( ) SI_UNIT ( $, .RADIAN. ) );
#163 = CARTESIAN_POINT ( 'NONE',  ( -12.50000000000000000, 1.530757942277971600E-015, 2.790002738225834600 ) ) ;
#164 =( GEOMETRIC_REPRESENTATION_CONTEXT ( 3 ) GLOBAL_UNCERTAINTY_ASSIGNED_CONTEXT ( ( #160 ) ) GLOBAL_UNIT_ASSIGNED_CONTEXT ( ( #169, #162, #161 ) ) REPRESENTATION_CONTEXT ( 'NONE', 'WORKASPACE' ) );
#165 = DIRECTION ( 'NONE',  ( 1.000000000000000000, 0.0000000000000000000, 0.0000000000000000000 ) ) ;
#166 = DIRECTION ( 'NONE',  ( 1.000000000000000000, 0.0000000000000000000, 0.0000000000000000000 ) ) ;
#167 = FILL_AREA_STYLE_COLOUR ( '', #174 ) ;
#168 = DIRECTION ( 'NONE',  ( -0.0000000000000000000, -0.0000000000000000000, 1.000000000000000000 ) ) ;
#169 =( LENGTH_UNIT ( ) NAMED_UNIT ( * ) SI_UNIT ( .MILLI., .METRE. ) );
#170 = SURFACE_STYLE_FILL_AREA ( #180 ) ;
#171 = AXIS2_PLACEMENT_3D ( 'NONE', #172, #155, #156 ) ;
#172 = CARTESIAN_POINT ( 'NONE',  ( 0.0000000000000000000, 0.0000000000000000000, 2.790002738225834600 ) ) ;
#173 = CARTESIAN_POINT ( 'NONE',  ( -12.50000000000000000, 1.530757942277971600E-015, -2.790002738225834600 ) ) ;
#174 = COLOUR_RGB ( '',0.9568627450980391500, 0.9490196078431372100, 0.9607843137254902200 ) ;
#175 = CYLINDRICAL_SURFACE ( 'NONE', #176, 12.50000000000000000 ) ;
#176 = AXIS2_PLACEMENT_3D ( 'NONE', #148, #168, #165 ) ;
#177 = DIRECTION ( 'NONE',  ( -0.0000000000000000000, -0.0000000000000000000, 1.000000000000000000 ) ) ;
#178 = CARTESIAN_POINT ( 'NONE',  ( 0.0000000000000000000, 0.0000000000000000000, -2.790002738225834600 ) ) ;
#179 = AXIS2_PLACEMENT_3D ( 'NONE', #178, #177, #166 ) ;
#180 = FILL_AREA_STYLE ('',( #167 ) ) ;
#181 = CIRCLE ( 'NONE', #171, 12.50000000000000000 ) ;
#182 = DIRECTION ( 'NONE',  ( 1.000000000000000000, 0.0000000000000000000, 0.0000000000000000000 ) ) ;
#183 = DIRECTION ( 'NONE',  ( -1.224606353822377300E-016, -1.000000000000000000, 0.0000000000000000000 ) ) ;
#184 = DIRECTION ( 'NONE',  ( -0.0000000000000000000, -0.0000000000000000000, 1.000000000000000000 ) ) ;
#185 = VECTOR ( 'NONE', #210, 1000.000000000000000 ) ;
#186 = DIRECTION ( 'NONE',  ( 0.0000000000000000000, 1.000000000000000000, 0.0000000000000000000 ) ) ;
#187 = AXIS2_PLACEMENT_3D ( 'NONE', #208, #212, #183 ) ;
#188 = DIRECTION ( 'NONE',  ( -1.000000000000000000, 0.0000000000000000000, 0.0000000000000000000 ) ) ;
#189 = CARTESIAN_POINT ( 'NONE',  ( 0.0000000000000000000, 2.363490262877188700E-015, 0.7099972617741617800 ) ) ;
#190 = LINE ( 'NONE', #191, #185 ) ;
#191 = CARTESIAN_POINT ( 'NONE',  ( 12.50000000000000000, 0.0000000000000000000, 7.977150532203490100 ) ) ;
#192 = CARTESIAN_POINT ( 'NONE',  ( 0.0000000000000000000, 0.0000000000000000000, 39.30999726177417100 ) ) ;
#193 = CARTESIAN_POINT ( 'NONE',  ( 0.0000000000000000000, 0.0000000000000000000, 2.790002738225834600 ) ) ;
#194 = AXIS2_PLACEMENT_3D ( 'NONE', #193, #184, #182 ) ;
#195 = AXIS2_PLACEMENT_3D ( 'NONE', #192, #188, #186 ) ;
#196 = CIRCLE ( 'NONE', #194, 12.50000000000000000 ) ;
#197 = COLOUR_RGB ( '',0.9568627450980391500, 0.9490196078431372100, 0.9607843137254902200 ) ;
#198 = CIRCLE ( 'NONE', #187, 38.60000000000000900 ) ;
#199 = MECHANICAL_DESIGN_GEOMETRIC_PRESENTATION_REPRESENTATION (  '', ( #201 ), #45 ) ;
#200 = PRESENTATION_LAYER_ASSIGNMENT (  '', '', ( #201 ) ) ;
#201 = STYLED_ITEM ( 'NONE', ( #202 ), #60 ) ;
#202 = PRESENTATION_STYLE_ASSIGNMENT (( #203 ) ) ;
#203 = SURFACE_STYLE_USAGE ( .BOTH. , #204 ) ;
#204 = SURFACE_SIDE_STYLE ('',( #205 ) ) ;
#205 = SURFACE_STYLE_FILL_AREA ( #206 ) ;
#206 = FILL_AREA_STYLE ('',( #207 ) ) ;
#207 = FILL_AREA_STYLE_COLOUR ( '', #197 ) ;
#208 = CARTESIAN_POINT ( 'NONE',  ( 0.0000000000000000000, 0.0000000000000000000, 39.30999726177417100 ) ) ;
#209 = FACE_OUTER_BOUND ( 'NONE', #66, .T. ) ;
#210 = DIRECTION ( 'NONE',  ( -0.0000000000000000000, -0.0000000000000000000, 1.000000000000000000 ) ) ;
#211 = SPHERICAL_SURFACE ( 'NONE', #195, 38.60000000000000900 ) ;
#212 = DIRECTION ( 'NONE',  ( -1.000000000000000000, 1.224606353822377300E-016, 0.0000000000000000000 ) ) ;
#213 = DIRECTION ( 'NONE',  ( 1.000000000000000000, 0.0000000000000000000, 0.0000000000000000000 ) ) ;
#214 = CIRCLE ( 'NONE', #219, 12.50000000000000000 ) ;
#215 =( GEOMETRIC_REPRESENTATION_CONTEXT ( 3 ) GLOBAL_UNCERTAINTY_ASSIGNED_CONTEXT ( ( #243 ) ) GLOBAL_UNIT_ASSIGNED_CONTEXT ( ( #228, #245, #244 ) ) REPRESENTATION_CONTEXT ( 'NONE', 'WORKASPACE' ) );
#216 = AXIS2_PLACEMENT_3D ( 'NONE', #233, #217, #213 ) ;
#217 = DIRECTION ( 'NONE',  ( -0.0000000000000000000, -0.0000000000000000000, 1.000000000000000000 ) ) ;
#218 = DIRECTION ( 'NONE',  ( 1.000000000000000000, 0.0000000000000000000, 0.0000000000000000000 ) ) ;
#219 = AXIS2_PLACEMENT_3D ( 'NONE', #221, #235, #218 ) ;
#220 = CYLINDRICAL_SURFACE ( 'NONE', #216, 12.50000000000000000 ) ;
#221 = CARTESIAN_POINT ( 'NONE',  ( 0.0000000000000000000, 0.0000000000000000000, 2.790002738225834600 ) ) ;
#222 =( GEOMETRIC_REPRESENTATION_CONTEXT ( 3 ) GLOBAL_UNCERTAINTY_ASSIGNED_CONTEXT ( ( #225 ) ) GLOBAL_UNIT_ASSIGNED_CONTEXT ( ( #226, #227, #232 ) ) REPRESENTATION_CONTEXT ( 'NONE', 'WORKASPACE' ) );
#223 = CARTESIAN_POINT ( 'NONE',  ( -1.530757942277972000E-015, -12.50000000000000400, 2.790002738225837700 ) ) ;
#224 = ADVANCED_BREP_SHAPE_REPRESENTATION ( '19073-E0W', ( #19, #254 ), #222 ) ;
#225 = UNCERTAINTY_MEASURE_WITH_UNIT (LENGTH_MEASURE( 1.000000000000000100E-005 ), #226, 'distance_accuracy_value', 'NONE');
#226 =( LENGTH_UNIT ( ) NAMED_UNIT ( * ) SI_UNIT ( .MILLI., .METRE. ) );
#227 =( NAMED_UNIT ( * ) PLANE_ANGLE_UNIT ( ) SI_UNIT ( $, .RADIAN. ) );
#228 =( LENGTH_UNIT ( ) NAMED_UNIT ( * ) SI_UNIT ( .MILLI., .METRE. ) );
#229 = MECHANICAL_DESIGN_GEOMETRIC_PRESENTATION_REPRESENTATION (  '', ( #236 ), #215 ) ;
#230 = PRESENTATION_LAYER_ASSIGNMENT (  '', '', ( #236 ) ) ;
#231 = CARTESIAN_POINT ( 'NONE',  ( 12.50000000000000000, 0.0000000000000000000, 2.790002738225834600 ) ) ;
#232 =( NAMED_UNIT ( * ) SI_UNIT ( $, .STERADIAN. ) SOLID_ANGLE_UNIT ( ) );
#233 = CARTESIAN_POINT ( 'NONE',  ( 0.0000000000000000000, 0.0000000000000000000, 7.977150532203490100 ) ) ;
#234 = COLOUR_RGB ( '',0.7960784313725489700, 0.8235294117647058400, 0.9372549019607843100 ) ;
#235 = DIRECTION ( 'NONE',  ( -0.0000000000000000000, -0.0000000000000000000, 1.000000000000000000 ) ) ;
#236 = STYLED_ITEM ( 'NONE', ( #237 ), #224 ) ;
#237 = PRESENTATION_STYLE_ASSIGNMENT (( #238 ) ) ;
#238 = SURFACE_STYLE_USAGE ( .BOTH. , #239 ) ;
#239 = SURFACE_SIDE_STYLE ('',( #240 ) ) ;
#240 = SURFACE_STYLE_FILL_AREA ( #241 ) ;
#241 = FILL_AREA_STYLE ('',( #242 ) ) ;
#242 = FILL_AREA_STYLE_COLOUR ( '', #234 ) ;
#243 = UNCERTAINTY_MEASURE_WITH_UNIT (LENGTH_MEASURE( 1.000000000000000100E-005 ), #228, 'distance_accuracy_value', 'NONE');
#244 =( NAMED_UNIT ( * ) SI_UNIT ( $, .STERADIAN. ) SOLID_ANGLE_UNIT ( ) );
#245 =( NAMED_UNIT ( * ) PLANE_ANGLE_UNIT ( ) SI_UNIT ( $, .RADIAN. ) );
#246 = CARTESIAN_POINT ( 'NONE',  ( 0.0000000000000000000, 0.0000000000000000000, 0.0000000000000000000 ) ) ;
#247 = DIRECTION ( 'NONE',  ( 1.000000000000000000, 0.0000000000000000000, 0.0000000000000000000 ) ) ;
#248 = APPLICATION_CONTEXT ( 'automotive_design' ) ;
#249 = APPLICATION_PROTOCOL_DEFINITION ( 'draft international standard', 'automotive_design', 1998, #248 ) ;
#250 = APPLICATION_PROTOCOL_DEFINITION ( 'draft international standard', 'automotive_design', 1998, #251 ) ;
#251 = APPLICATION_CONTEXT ( 'automotive_design' ) ;
#252 = PRODUCT ( '19073-E0W', '19073-E0W', '', ( #253 ) ) ;
#253 = PRODUCT_CONTEXT ( 'NONE', #248, 'mechanical' ) ;
#254 = AXIS2_PLACEMENT_3D ( 'NONE', #246, #261, #247 ) ;
#255 = SHAPE_DEFINITION_REPRESENTATION ( #256, #224 ) ;
#256 = PRODUCT_DEFINITION_SHAPE ( 'NONE', 'NONE',  #259 ) ;
#257 = PRODUCT_RELATED_PRODUCT_CATEGORY ( 'part', '', ( #252 ) ) ;
#258 = PRODUCT_DEFINITION_FORMATION_WITH_SPECIFIED_SOURCE ( 'ANY', '', #252, .NOT_KNOWN. ) ;
#259 = PRODUCT_DEFINITION ( 'UNKNOWN', '', #258, #260 ) ;
#260 = PRODUCT_DEFINITION_CONTEXT ( 'detailed design', #251, 'design' ) ;
#261 = DIRECTION ( 'NONE',  ( 0.0000000000000000000, 0.0000000000000000000, 1.000000000000000000 ) ) ;
ENDSEC;
END-ISO-10303-21;
