ISO-10303-21;
HEADER;
FILE_DESCRIPTION (( 'STEP AP203' ),
    '1' );
FILE_NAME ('Web Model 48864_48866.step',
    '2017-05-09T19:00:18',
    ( '' ),
    ( '' ),
    'SwSTEP 2.0',
    'SolidWorks 2016',
    '' );
FILE_SCHEMA (( 'CONFIG_CONTROL_DESIGN' ));
ENDSEC;

DATA;
#1 =( LENGTH_UNIT ( ) NAMED_UNIT ( * ) SI_UNIT ( .MILLI., .METRE. ) );
#2 = CARTESIAN_POINT ( 'NONE',  ( 0.0000000000000000000, -25.00000000000000000, 25.00000000000000000 ) ) ;
#3 = CC_DESIGN_SECURITY_CLASSIFICATION ( #43, ( #155 ) ) ;
#4 = MANIFOLD_SOLID_BREP ( 'Boss-Extrude2', #222 ) ;
#5 = VECTOR ( 'NONE', #173, 1000.000000000000000 ) ;
#6 = DIRECTION ( 'NONE',  ( -0.0000000000000000000, 0.0000000000000000000, 1.000000000000000000 ) ) ;
#7 = PERSON_AND_ORGANIZATION ( #272, #102 ) ;
#8 = ORIENTED_EDGE ( 'NONE', *, *, #151, .F. ) ;
#9 = APPROVAL ( #299, 'UNSPECIFIED' ) ;
#10 = CARTESIAN_POINT ( 'NONE',  ( 0.0000000000000000000, 0.0000000000000000000, 25.00000000000000000 ) ) ;
#11 = VECTOR ( 'NONE', #240, 1000.000000000000000 ) ;
#12 = ORIENTED_EDGE ( 'NONE', *, *, #163, .T. ) ;
#13 = APPROVAL ( #200, 'UNSPECIFIED' ) ;
#14 = VECTOR ( 'NONE', #85, 1000.000000000000000 ) ;
#15 = VERTEX_POINT ( 'NONE', #108 ) ;
#16 = DIRECTION ( 'NONE',  ( 1.000000000000000000, 0.0000000000000000000, 0.0000000000000000000 ) ) ;
#17 = ADVANCED_FACE ( 'NONE', ( #84 ), #158, .F. ) ;
#18 = PLANE ( 'NONE',  #130 ) ;
#19 = VERTEX_POINT ( 'NONE', #302 ) ;
#20 = DIRECTION ( 'NONE',  ( 1.000000000000000000, 0.0000000000000000000, 0.0000000000000000000 ) ) ;
#21 = EDGE_CURVE ( 'NONE', #64, #316, #113, .T. ) ;
#22 = ORIENTED_EDGE ( 'NONE', *, *, #125, .F. ) ;
#23 = PERSON_AND_ORGANIZATION_ROLE ( 'classification_officer' ) ;
#24 = DIRECTION ( 'NONE',  ( 0.0000000000000000000, 1.000000000000000000, 0.0000000000000000000 ) ) ;
#25 = CC_DESIGN_PERSON_AND_ORGANIZATION_ASSIGNMENT ( #241, #321, ( #155 ) ) ;
#26 = AXIS2_PLACEMENT_3D ( 'NONE', #10, #112, #137 ) ;
#27 = FACE_OUTER_BOUND ( 'NONE', #218, .T. ) ;
#28 = FACE_OUTER_BOUND ( 'NONE', #193, .T. ) ;
#29 = CARTESIAN_POINT ( 'NONE',  ( -25.00000000000000000, 0.0000000000000000000, 25.00000000000000000 ) ) ;
#30 = APPROVAL ( #278, 'UNSPECIFIED' ) ;
#31 = CARTESIAN_POINT ( 'NONE',  ( -25.00000000000000000, -25.00000000000000000, -25.00000000000000000 ) ) ;
#32 = DIRECTION ( 'NONE',  ( 0.0000000000000000000, 1.000000000000000000, -0.0000000000000000000 ) ) ;
#33 = EDGE_LOOP ( 'NONE', ( #175, #214, #129, #143 ) ) ;
#34 = CC_DESIGN_PERSON_AND_ORGANIZATION_ASSIGNMENT ( #57, #303, ( #155 ) ) ;
#35 = PLANE ( 'NONE',  #26 ) ;
#36 = PERSON_AND_ORGANIZATION ( #272, #102 ) ;
#37 = CARTESIAN_POINT ( 'NONE',  ( 25.00000000000000000, -25.00000000000000000, 25.00000000000000000 ) ) ;
#38 = LINE ( 'NONE', #134, #292 ) ;
#39 = VERTEX_POINT ( 'NONE', #181 ) ;
#40 = APPROVAL_DATE_TIME ( #105, #30 ) ;
#41 = LINE ( 'NONE', #103, #79 ) ;
#42 = EDGE_LOOP ( 'NONE', ( #115, #136, #283 ) ) ;
#43 = SECURITY_CLASSIFICATION ( '', '', #250 ) ;
#44 = ADVANCED_FACE ( 'NONE', ( #28 ), #83, .T. ) ;
#45 = CARTESIAN_POINT ( 'NONE',  ( -0.0000000000000000000, 0.0000000000000000000, -25.00000000000000000 ) ) ;
#46 = AXIS2_PLACEMENT_3D ( 'NONE', #267, #99, #317 ) ;
#47 = FACE_OUTER_BOUND ( 'NONE', #210, .T. ) ;
#48 = CLOSED_SHELL ( 'NONE', ( #121, #265, #276, #169, #199 ) ) ;
#49 = MECHANICAL_CONTEXT ( 'NONE', #75, 'mechanical' ) ;
#50 = LOCAL_TIME ( 15, 0, 18.00000000000000000, #177 ) ;
#51 = DIRECTION ( 'NONE',  ( 1.000000000000000000, 0.0000000000000000000, 0.0000000000000000000 ) ) ;
#52 = ORIENTED_EDGE ( 'NONE', *, *, #125, .T. ) ;
#53 = ORIENTED_EDGE ( 'NONE', *, *, #96, .T. ) ;
#54 = APPLICATION_PROTOCOL_DEFINITION ( 'international standard', 'config_control_design', 1994, #75 ) ;
#55 =( NAMED_UNIT ( * ) PLANE_ANGLE_UNIT ( ) SI_UNIT ( $, .RADIAN. ) );
#56 = CARTESIAN_POINT ( 'NONE',  ( 25.00000000000000000, -25.00000000000000000, 25.00000000000000000 ) ) ;
#57 = PERSON_AND_ORGANIZATION ( #272, #102 ) ;
#58 = FACE_OUTER_BOUND ( 'NONE', #231, .T. ) ;
#59 = DESIGN_CONTEXT ( 'detailed design', #274, 'design' ) ;
#60 = PLANE ( 'NONE',  #285 ) ;
#61 = DIRECTION ( 'NONE',  ( 0.7071067811865475700, 0.7071067811865475700, -0.0000000000000000000 ) ) ;
#62 = COORDINATED_UNIVERSAL_TIME_OFFSET ( 5, 0, .BEHIND. ) ;
#63 = EDGE_LOOP ( 'NONE', ( #178, #188, #106 ) ) ;
#64 = VERTEX_POINT ( 'NONE', #282 ) ;
#65 = CARTESIAN_POINT ( 'NONE',  ( 25.00000000000000000, 0.0000000000000000000, -25.00000000000000000 ) ) ;
#66 = DATE_AND_TIME ( #309, #296 ) ;
#67 = FACE_OUTER_BOUND ( 'NONE', #63, .T. ) ;
#68 = DATE_AND_TIME ( #255, #318 ) ;
#69 = CARTESIAN_POINT ( 'NONE',  ( 25.00000000000000000, 25.00000000000000000, 25.00000000000000000 ) ) ;
#70 = CARTESIAN_POINT ( 'NONE',  ( 25.00000000000000000, 0.0000000000000000000, 25.00000000000000000 ) ) ;
#71 = DIRECTION ( 'NONE',  ( 0.7071067811865474600, -0.7071067811865474600, 0.0000000000000000000 ) ) ;
#72 = DIRECTION ( 'NONE',  ( 0.7071067811865474600, -0.7071067811865474600, 0.0000000000000000000 ) ) ;
#73 = LINE ( 'NONE', #69, #237 ) ;
#74 = ORIENTED_EDGE ( 'NONE', *, *, #96, .F. ) ;
#75 = APPLICATION_CONTEXT ( 'configuration controlled 3d designs of mechanical parts and assemblies' ) ;
#76 = ADVANCED_FACE ( 'NONE', ( #277 ), #132, .T. ) ;
#77 = APPROVAL_PERSON_ORGANIZATION ( #170, #9, #150 ) ;
#78 = DATE_TIME_ROLE ( 'creation_date' ) ;
#79 = VECTOR ( 'NONE', #104, 1000.000000000000000 ) ;
#80 = ORIENTED_EDGE ( 'NONE', *, *, #295, .T. ) ;
#81 = LINE ( 'NONE', #65, #208 ) ;
#82 = VERTEX_POINT ( 'NONE', #153 ) ;
#83 = PLANE ( 'NONE',  #216 ) ;
#84 = FACE_OUTER_BOUND ( 'NONE', #194, .T. ) ;
#85 = DIRECTION ( 'NONE',  ( 0.0000000000000000000, 1.000000000000000000, -0.0000000000000000000 ) ) ;
#86 = DIRECTION ( 'NONE',  ( -0.0000000000000000000, -0.0000000000000000000, -1.000000000000000000 ) ) ;
#87 = LINE ( 'NONE', #147, #297 ) ;
#88 = VECTOR ( 'NONE', #72, 1000.000000000000100 ) ;
#89 = LINE ( 'NONE', #190, #139 ) ;
#90 = VERTEX_POINT ( 'NONE', #31 ) ;
#91 = MANIFOLD_SOLID_BREP ( 'Boss-Extrude3', #48 ) ;
#92 = FACE_OUTER_BOUND ( 'NONE', #154, .T. ) ;
#93 = LINE ( 'NONE', #56, #11 ) ;
#94 = DIRECTION ( 'NONE',  ( 0.0000000000000000000, 1.000000000000000000, 0.0000000000000000000 ) ) ;
#95 = AXIS2_PLACEMENT_3D ( 'NONE', #149, #172, #20 ) ;
#96 = EDGE_CURVE ( 'NONE', #90, #310, #41, .T. ) ;
#97 = CARTESIAN_POINT ( 'NONE',  ( -25.00000000000000000, 25.00000000000000000, 25.00000000000000000 ) ) ;
#98 = CC_DESIGN_DATE_AND_TIME_ASSIGNMENT ( #182, #253, ( #43 ) ) ;
#99 = DIRECTION ( 'NONE',  ( -0.0000000000000000000, 0.0000000000000000000, 1.000000000000000000 ) ) ;
#100 = ORIENTED_EDGE ( 'NONE', *, *, #180, .F. ) ;
#101 = CARTESIAN_POINT ( 'NONE',  ( 25.00000000000000000, -25.00000000000000000, -25.00000000000000000 ) ) ;
#102 = ORGANIZATION ( 'UNSPECIFIED', 'UNSPECIFIED', '' ) ;
#103 = CARTESIAN_POINT ( 'NONE',  ( 0.0000000000000000000, -25.00000000000000000, -25.00000000000000000 ) ) ;
#104 = DIRECTION ( 'NONE',  ( 1.000000000000000000, 0.0000000000000000000, 0.0000000000000000000 ) ) ;
#105 = DATE_AND_TIME ( #305, #50 ) ;
#106 = ORIENTED_EDGE ( 'NONE', *, *, #239, .F. ) ;
#107 = ORIENTED_EDGE ( 'NONE', *, *, #239, .T. ) ;
#108 = CARTESIAN_POINT ( 'NONE',  ( 25.00000000000000000, 25.00000000000000000, -25.00000000000000000 ) ) ;
#109 = CC_DESIGN_PERSON_AND_ORGANIZATION_ASSIGNMENT ( #36, #176, ( #201 ) ) ;
#110 = ORIENTED_EDGE ( 'NONE', *, *, #195, .T. ) ;
#111 = ORIENTED_EDGE ( 'NONE', *, *, #279, .F. ) ;
#112 = DIRECTION ( 'NONE',  ( -0.0000000000000000000, 0.0000000000000000000, 1.000000000000000000 ) ) ;
#113 = LINE ( 'NONE', #29, #198 ) ;
#114 = ORIENTED_EDGE ( 'NONE', *, *, #151, .T. ) ;
#115 = ORIENTED_EDGE ( 'NONE', *, *, #227, .F. ) ;
#116 = LOCAL_TIME ( 15, 0, 18.00000000000000000, #311 ) ;
#117 = CARTESIAN_POINT ( 'NONE',  ( 0.0000000000000000000, 0.0000000000000000000, 25.00000000000000000 ) ) ;
#118 = ORIENTED_EDGE ( 'NONE', *, *, #21, .T. ) ;
#119 = CARTESIAN_POINT ( 'NONE',  ( 0.0000000000000000000, 0.0000000000000000000, 25.00000000000000000 ) ) ;
#120 = DIRECTION ( 'NONE',  ( 0.0000000000000000000, -0.0000000000000000000, 1.000000000000000000 ) ) ;
#121 = ADVANCED_FACE ( 'NONE', ( #286 ), #60, .F. ) ;
#122 = PRODUCT_DEFINITION ( 'UNKNOWN', '', #155, #59 ) ;
#123 = DIRECTION ( 'NONE',  ( -1.000000000000000000, 0.0000000000000000000, 0.0000000000000000000 ) ) ;
#124 = ORIENTED_EDGE ( 'NONE', *, *, #157, .T. ) ;
#125 = EDGE_CURVE ( 'NONE', #293, #310, #306, .T. ) ;
#126 = CARTESIAN_POINT ( 'NONE',  ( -25.00000000000000000, 25.00000000000000000, 25.00000000000000000 ) ) ;
#127 = APPROVAL_ROLE ( '' ) ;
#128 = PERSON_AND_ORGANIZATION_ROLE ( 'creator' ) ;
#129 = ORIENTED_EDGE ( 'NONE', *, *, #163, .F. ) ;
#130 = AXIS2_PLACEMENT_3D ( 'NONE', #2, #24, #206 ) ;
#131 = VECTOR ( 'NONE', #219, 1000.000000000000100 ) ;
#132 = PLANE ( 'NONE',  #244 ) ;
#133 = CARTESIAN_POINT ( 'NONE',  ( 0.0000000000000000000, 0.0000000000000000000, 25.00000000000000000 ) ) ;
#134 = CARTESIAN_POINT ( 'NONE',  ( 25.00000000000000000, -25.00000000000000000, 25.00000000000000000 ) ) ;
#135 = LINE ( 'NONE', #126, #232 ) ;
#136 = ORIENTED_EDGE ( 'NONE', *, *, #140, .T. ) ;
#137 = DIRECTION ( 'NONE',  ( 1.000000000000000000, 0.0000000000000000000, 0.0000000000000000000 ) ) ;
#138 =( GEOMETRIC_REPRESENTATION_CONTEXT ( 3 ) GLOBAL_UNCERTAINTY_ASSIGNED_CONTEXT ( ( #204 ) ) GLOBAL_UNIT_ASSIGNED_CONTEXT ( ( #1, #55, #319 ) ) REPRESENTATION_CONTEXT ( 'NONE', 'WORKASPACE' ) );
#139 = VECTOR ( 'NONE', #51, 1000.000000000000000 ) ;
#140 = EDGE_CURVE ( 'NONE', #82, #15, #249, .T. ) ;
#141 = VECTOR ( 'NONE', #266, 1000.000000000000000 ) ;
#142 = PLANE ( 'NONE',  #236 ) ;
#143 = ORIENTED_EDGE ( 'NONE', *, *, #315, .T. ) ;
#144 = ORIENTED_EDGE ( 'NONE', *, *, #167, .T. ) ;
#145 = CC_DESIGN_PERSON_AND_ORGANIZATION_ASSIGNMENT ( #251, #23, ( #43 ) ) ;
#146 = CARTESIAN_POINT ( 'NONE',  ( 0.0000000000000000000, 25.00000000000000000, 25.00000000000000000 ) ) ;
#147 = CARTESIAN_POINT ( 'NONE',  ( -25.00000000000000000, -25.00000000000000000, 25.00000000000000000 ) ) ;
#148 = CARTESIAN_POINT ( 'NONE',  ( -25.00000000000000000, 25.00000000000000000, -25.00000000000000000 ) ) ;
#149 = CARTESIAN_POINT ( 'NONE',  ( 0.0000000000000000000, 0.0000000000000000000, 0.0000000000000000000 ) ) ;
#150 = APPROVAL_ROLE ( '' ) ;
#151 = EDGE_CURVE ( 'NONE', #179, #19, #233, .T. ) ;
#152 = DIRECTION ( 'NONE',  ( -0.0000000000000000000, -0.0000000000000000000, -1.000000000000000000 ) ) ;
#153 = CARTESIAN_POINT ( 'NONE',  ( -25.00000000000000000, 25.00000000000000000, -25.00000000000000000 ) ) ;
#154 = EDGE_LOOP ( 'NONE', ( #144, #234, #8, #124 ) ) ;
#155 = PRODUCT_DEFINITION_FORMATION_WITH_SPECIFIED_SOURCE ( 'ANY', '', #201, .NOT_KNOWN. ) ;
#156 = AXIS2_PLACEMENT_3D ( 'NONE', #146, #94, #120 ) ;
#157 = EDGE_CURVE ( 'NONE', #179, #308, #38, .T. ) ;
#158 = PLANE ( 'NONE',  #252 ) ;
#159 = PERSON_AND_ORGANIZATION ( #272, #102 ) ;
#160 = CARTESIAN_POINT ( 'NONE',  ( 0.0000000000000000000, 0.0000000000000000000, -25.00000000000000000 ) ) ;
#161 = CARTESIAN_POINT ( 'NONE',  ( -0.0000000000000000000, 0.0000000000000000000, -25.00000000000000000 ) ) ;
#162 = DIRECTION ( 'NONE',  ( 0.0000000000000000000, 1.000000000000000000, -0.0000000000000000000 ) ) ;
#163 = EDGE_CURVE ( 'NONE', #39, #179, #281, .T. ) ;
#164 = LINE ( 'NONE', #220, #5 ) ;
#165 = ORIENTED_EDGE ( 'NONE', *, *, #180, .T. ) ;
#166 = CC_DESIGN_PERSON_AND_ORGANIZATION_ASSIGNMENT ( #196, #128, ( #122 ) ) ;
#167 = EDGE_CURVE ( 'NONE', #308, #15, #81, .T. ) ;
#168 = CARTESIAN_POINT ( 'NONE',  ( 0.0000000000000000000, 0.0000000000000000000, 25.00000000000000000 ) ) ;
#169 = ADVANCED_FACE ( 'NONE', ( #47 ), #35, .T. ) ;
#170 = PERSON_AND_ORGANIZATION ( #272, #102 ) ;
#171 = CARTESIAN_POINT ( 'NONE',  ( -25.00000000000000000, 0.0000000000000000000, -25.00000000000000000 ) ) ;
#172 = DIRECTION ( 'NONE',  ( 0.0000000000000000000, 0.0000000000000000000, 1.000000000000000000 ) ) ;
#173 = DIRECTION ( 'NONE',  ( 1.000000000000000000, 0.0000000000000000000, 0.0000000000000000000 ) ) ;
#174 = APPROVAL_PERSON_ORGANIZATION ( #159, #30, #300 ) ;
#175 = ORIENTED_EDGE ( 'NONE', *, *, #227, .T. ) ;
#176 = PERSON_AND_ORGANIZATION_ROLE ( 'design_owner' ) ;
#177 = COORDINATED_UNIVERSAL_TIME_OFFSET ( 5, 0, .BEHIND. ) ;
#178 = ORIENTED_EDGE ( 'NONE', *, *, #21, .F. ) ;
#179 = VERTEX_POINT ( 'NONE', #37 ) ;
#180 = EDGE_CURVE ( 'NONE', #316, #293, #271, .T. ) ;
#181 = CARTESIAN_POINT ( 'NONE',  ( -25.00000000000000000, 25.00000000000000000, 25.00000000000000000 ) ) ;
#182 = DATE_AND_TIME ( #275, #247 ) ;
#183 = VECTOR ( 'NONE', #313, 1000.000000000000000 ) ;
#184 = DIRECTION ( 'NONE',  ( -1.000000000000000000, 0.0000000000000000000, 0.0000000000000000000 ) ) ;
#185 = EDGE_CURVE ( 'NONE', #64, #289, #89, .T. ) ;
#186 = DIRECTION ( 'NONE',  ( -0.0000000000000000000, -0.0000000000000000000, -1.000000000000000000 ) ) ;
#187 = LINE ( 'NONE', #45, #88 ) ;
#188 = ORIENTED_EDGE ( 'NONE', *, *, #185, .T. ) ;
#189 = ORIENTED_EDGE ( 'NONE', *, *, #315, .F. ) ;
#190 = CARTESIAN_POINT ( 'NONE',  ( 0.0000000000000000000, -25.00000000000000000, 25.00000000000000000 ) ) ;
#191 = APPROVAL_DATE_TIME ( #68, #9 ) ;
#192 = EDGE_CURVE ( 'NONE', #19, #15, #73, .T. ) ;
#193 = EDGE_LOOP ( 'NONE', ( #259, #111, #118, #165 ) ) ;
#194 = EDGE_LOOP ( 'NONE', ( #80, #52, #74 ) ) ;
#195 = EDGE_CURVE ( 'NONE', #39, #19, #164, .T. ) ;
#196 = PERSON_AND_ORGANIZATION ( #272, #102 ) ;
#197 = DIRECTION ( 'NONE',  ( -0.0000000000000000000, -0.0000000000000000000, -1.000000000000000000 ) ) ;
#198 = VECTOR ( 'NONE', #32, 1000.000000000000000 ) ;
#199 = ADVANCED_FACE ( 'NONE', ( #298 ), #223, .F. ) ;
#200 = APPROVAL_STATUS ( 'not_yet_approved' ) ;
#201 = PRODUCT ( 'Web Model 48864_48866', 'Web Model 48864_48866', '', ( #49 ) ) ;
#202 = ADVANCED_FACE ( 'NONE', ( #58 ), #18, .F. ) ;
#203 = LINE ( 'NONE', #171, #280 ) ;
#204 = UNCERTAINTY_MEASURE_WITH_UNIT (LENGTH_MEASURE( 1.000000000000000100E-005 ), #1, 'distance_accuracy_value', 'NONE');
#205 = ORIENTED_EDGE ( 'NONE', *, *, #185, .F. ) ;
#206 = DIRECTION ( 'NONE',  ( 0.0000000000000000000, -0.0000000000000000000, 1.000000000000000000 ) ) ;
#207 = DIRECTION ( 'NONE',  ( 0.7071067811865475700, 0.7071067811865475700, -0.0000000000000000000 ) ) ;
#208 = VECTOR ( 'NONE', #162, 1000.000000000000000 ) ;
#209 = DIRECTION ( 'NONE',  ( 0.0000000000000000000, 0.0000000000000000000, 1.000000000000000000 ) ) ;
#210 = EDGE_LOOP ( 'NONE', ( #12, #114, #243 ) ) ;
#211 = EDGE_CURVE ( 'NONE', #289, #310, #93, .T. ) ;
#212 = CARTESIAN_POINT ( 'NONE',  ( -25.00000000000000000, 0.0000000000000000000, 25.00000000000000000 ) ) ;
#213 = DATE_AND_TIME ( #290, #116 ) ;
#214 = ORIENTED_EDGE ( 'NONE', *, *, #157, .F. ) ;
#215 = PRODUCT_RELATED_PRODUCT_CATEGORY ( 'detail', '', ( #201 ) ) ;
#216 = AXIS2_PLACEMENT_3D ( 'NONE', #212, #184, #209 ) ;
#217 = VECTOR ( 'NONE', #71, 1000.000000000000100 ) ;
#218 = EDGE_LOOP ( 'NONE', ( #284, #189, #110, #273 ) ) ;
#219 = DIRECTION ( 'NONE',  ( 0.7071067811865474600, -0.7071067811865474600, 0.0000000000000000000 ) ) ;
#220 = CARTESIAN_POINT ( 'NONE',  ( 0.0000000000000000000, 25.00000000000000000, 25.00000000000000000 ) ) ;
#221 = DIRECTION ( 'NONE',  ( 0.0000000000000000000, 1.000000000000000000, -0.0000000000000000000 ) ) ;
#222 = CLOSED_SHELL ( 'NONE', ( #44, #202, #76, #226, #17 ) ) ;
#223 = PLANE ( 'NONE',  #46 ) ;
#224 = CC_DESIGN_APPROVAL ( #9, ( #155 ) ) ;
#225 = COORDINATED_UNIVERSAL_TIME_OFFSET ( 5, 0, .BEHIND. ) ;
#226 = ADVANCED_FACE ( 'NONE', ( #67 ), #314, .T. ) ;
#227 = EDGE_CURVE ( 'NONE', #82, #308, #187, .T. ) ;
#228 = APPLICATION_PROTOCOL_DEFINITION ( 'international standard', 'config_control_design', 1994, #274 ) ;
#229 = DIRECTION ( 'NONE',  ( 1.000000000000000000, 0.0000000000000000000, 0.0000000000000000000 ) ) ;
#230 = SHAPE_DEFINITION_REPRESENTATION ( #268, #287 ) ;
#231 = EDGE_LOOP ( 'NONE', ( #53, #312, #205, #254 ) ) ;
#232 = VECTOR ( 'NONE', #152, 1000.000000000000000 ) ;
#233 = LINE ( 'NONE', #235, #14 ) ;
#234 = ORIENTED_EDGE ( 'NONE', *, *, #192, .F. ) ;
#235 = CARTESIAN_POINT ( 'NONE',  ( 25.00000000000000000, 0.0000000000000000000, 25.00000000000000000 ) ) ;
#236 = AXIS2_PLACEMENT_3D ( 'NONE', #70, #123, #242 ) ;
#237 = VECTOR ( 'NONE', #86, 1000.000000000000000 ) ;
#238 = CC_DESIGN_APPROVAL ( #13, ( #122 ) ) ;
#239 = EDGE_CURVE ( 'NONE', #316, #289, #269, .T. ) ;
#240 = DIRECTION ( 'NONE',  ( -0.0000000000000000000, -0.0000000000000000000, -1.000000000000000000 ) ) ;
#241 = PERSON_AND_ORGANIZATION ( #272, #102 ) ;
#242 = DIRECTION ( 'NONE',  ( 0.0000000000000000000, 0.0000000000000000000, 1.000000000000000000 ) ) ;
#243 = ORIENTED_EDGE ( 'NONE', *, *, #195, .F. ) ;
#244 = AXIS2_PLACEMENT_3D ( 'NONE', #257, #207, #256 ) ;
#245 = DIRECTION ( 'NONE',  ( -0.0000000000000000000, 0.0000000000000000000, 1.000000000000000000 ) ) ;
#246 = CARTESIAN_POINT ( 'NONE',  ( 25.00000000000000000, -25.00000000000000000, -25.00000000000000000 ) ) ;
#247 = LOCAL_TIME ( 15, 0, 18.00000000000000000, #288 ) ;
#248 = VECTOR ( 'NONE', #270, 1000.000000000000100 ) ;
#249 = LINE ( 'NONE', #263, #141 ) ;
#250 = SECURITY_CLASSIFICATION_LEVEL ( 'unclassified' ) ;
#251 = PERSON_AND_ORGANIZATION ( #272, #102 ) ;
#252 = AXIS2_PLACEMENT_3D ( 'NONE', #160, #6, #229 ) ;
#253 = DATE_TIME_ROLE ( 'classification_date' ) ;
#254 = ORIENTED_EDGE ( 'NONE', *, *, #279, .T. ) ;
#255 = CALENDAR_DATE ( 2017, 9, 5 ) ;
#256 = DIRECTION ( 'NONE',  ( -0.7071067811865474600, 0.7071067811865474600, 0.0000000000000000000 ) ) ;
#257 = CARTESIAN_POINT ( 'NONE',  ( 0.0000000000000000000, 0.0000000000000000000, 25.00000000000000000 ) ) ;
#258 = APPROVAL_PERSON_ORGANIZATION ( #7, #13, #127 ) ;
#259 = ORIENTED_EDGE ( 'NONE', *, *, #295, .F. ) ;
#260 = CARTESIAN_POINT ( 'NONE',  ( -25.00000000000000000, 25.00000000000000000, 25.00000000000000000 ) ) ;
#261 = APPROVAL_DATE_TIME ( #213, #13 ) ;
#262 = ORIENTED_EDGE ( 'NONE', *, *, #211, .T. ) ;
#263 = CARTESIAN_POINT ( 'NONE',  ( -0.0000000000000000000, 25.00000000000000000, -25.00000000000000000 ) ) ;
#264 = EDGE_LOOP ( 'NONE', ( #22, #100, #107, #262 ) ) ;
#265 = ADVANCED_FACE ( 'NONE', ( #92 ), #142, .F. ) ;
#266 = DIRECTION ( 'NONE',  ( 1.000000000000000000, 0.0000000000000000000, 0.0000000000000000000 ) ) ;
#267 = CARTESIAN_POINT ( 'NONE',  ( 0.0000000000000000000, 0.0000000000000000000, -25.00000000000000000 ) ) ;
#268 = PRODUCT_DEFINITION_SHAPE ( 'NONE', 'NONE',  #122 ) ;
#269 = LINE ( 'NONE', #117, #248 ) ;
#270 = DIRECTION ( 'NONE',  ( 0.7071067811865474600, -0.7071067811865474600, 0.0000000000000000000 ) ) ;
#271 = LINE ( 'NONE', #260, #183 ) ;
#272 = PERSON ( 'UNSPECIFIED', 'UNSPECIFIED', 'UNSPECIFIED', ('UNSPECIFIED'), ('UNSPECIFIED'), ('UNSPECIFIED') ) ;
#273 = ORIENTED_EDGE ( 'NONE', *, *, #192, .T. ) ;
#274 = APPLICATION_CONTEXT ( 'configuration controlled 3d designs of mechanical parts and assemblies' ) ;
#275 = CALENDAR_DATE ( 2017, 9, 5 ) ;
#276 = ADVANCED_FACE ( 'NONE', ( #27 ), #291, .T. ) ;
#277 = FACE_OUTER_BOUND ( 'NONE', #264, .T. ) ;
#278 = APPROVAL_STATUS ( 'not_yet_approved' ) ;
#279 = EDGE_CURVE ( 'NONE', #64, #90, #87, .T. ) ;
#280 = VECTOR ( 'NONE', #221, 1000.000000000000000 ) ;
#281 = LINE ( 'NONE', #168, #217 ) ;
#282 = CARTESIAN_POINT ( 'NONE',  ( -25.00000000000000000, -25.00000000000000000, 25.00000000000000000 ) ) ;
#283 = ORIENTED_EDGE ( 'NONE', *, *, #167, .F. ) ;
#284 = ORIENTED_EDGE ( 'NONE', *, *, #140, .F. ) ;
#285 = AXIS2_PLACEMENT_3D ( 'NONE', #133, #61, #307 ) ;
#286 = FACE_OUTER_BOUND ( 'NONE', #33, .T. ) ;
#287 = ADVANCED_BREP_SHAPE_REPRESENTATION ( 'Web Model 48864_48866', ( #4, #91, #95 ), #138 ) ;
#288 = COORDINATED_UNIVERSAL_TIME_OFFSET ( 5, 0, .BEHIND. ) ;
#289 = VERTEX_POINT ( 'NONE', #320 ) ;
#290 = CALENDAR_DATE ( 2017, 9, 5 ) ;
#291 = PLANE ( 'NONE',  #156 ) ;
#292 = VECTOR ( 'NONE', #186, 1000.000000000000000 ) ;
#293 = VERTEX_POINT ( 'NONE', #148 ) ;
#294 = AXIS2_PLACEMENT_3D ( 'NONE', #119, #245, #16 ) ;
#295 = EDGE_CURVE ( 'NONE', #90, #293, #203, .T. ) ;
#296 = LOCAL_TIME ( 15, 0, 18.00000000000000000, #62 ) ;
#297 = VECTOR ( 'NONE', #197, 1000.000000000000000 ) ;
#298 = FACE_OUTER_BOUND ( 'NONE', #42, .T. ) ;
#299 = APPROVAL_STATUS ( 'not_yet_approved' ) ;
#300 = APPROVAL_ROLE ( '' ) ;
#301 = CC_DESIGN_DATE_AND_TIME_ASSIGNMENT ( #66, #78, ( #122 ) ) ;
#302 = CARTESIAN_POINT ( 'NONE',  ( 25.00000000000000000, 25.00000000000000000, 25.00000000000000000 ) ) ;
#303 = PERSON_AND_ORGANIZATION_ROLE ( 'creator' ) ;
#304 = CC_DESIGN_APPROVAL ( #30, ( #43 ) ) ;
#305 = CALENDAR_DATE ( 2017, 9, 5 ) ;
#306 = LINE ( 'NONE', #161, #131 ) ;
#307 = DIRECTION ( 'NONE',  ( -0.7071067811865474600, 0.7071067811865474600, 0.0000000000000000000 ) ) ;
#308 = VERTEX_POINT ( 'NONE', #246 ) ;
#309 = CALENDAR_DATE ( 2017, 9, 5 ) ;
#310 = VERTEX_POINT ( 'NONE', #101 ) ;
#311 = COORDINATED_UNIVERSAL_TIME_OFFSET ( 5, 0, .BEHIND. ) ;
#312 = ORIENTED_EDGE ( 'NONE', *, *, #211, .F. ) ;
#313 = DIRECTION ( 'NONE',  ( -0.0000000000000000000, -0.0000000000000000000, -1.000000000000000000 ) ) ;
#314 = PLANE ( 'NONE',  #294 ) ;
#315 = EDGE_CURVE ( 'NONE', #39, #82, #135, .T. ) ;
#316 = VERTEX_POINT ( 'NONE', #97 ) ;
#317 = DIRECTION ( 'NONE',  ( 1.000000000000000000, 0.0000000000000000000, 0.0000000000000000000 ) ) ;
#318 = LOCAL_TIME ( 15, 0, 18.00000000000000000, #225 ) ;
#319 =( NAMED_UNIT ( * ) SI_UNIT ( $, .STERADIAN. ) SOLID_ANGLE_UNIT ( ) );
#320 = CARTESIAN_POINT ( 'NONE',  ( 25.00000000000000000, -25.00000000000000000, 25.00000000000000000 ) ) ;
#321 = PERSON_AND_ORGANIZATION_ROLE ( 'design_supplier' ) ;
ENDSEC;
END-ISO-10303-21;
