ISO-10303-21;
HEADER;
FILE_DESCRIPTION (( 'STEP AP203' ),
    '1' );
FILE_NAME ('Web Model 38912_39006.step',
    '2018-10-18T19:50:21',
    ( '' ),
    ( '' ),
    'SwSTEP 2.0',
    'SolidWorks 2016',
    '' );
FILE_SCHEMA (( 'CONFIG_CONTROL_DESIGN' ));
ENDSEC;

DATA;
#1 = DIRECTION ( 'NONE',  ( -0.0000000000000000000, -0.0000000000000000000, -1.000000000000000000 ) ) ;
#2 = DIRECTION ( 'NONE',  ( 1.000000000000000000, 0.0000000000000000000, 0.0000000000000000000 ) ) ;
#3 =( LENGTH_UNIT ( ) NAMED_UNIT ( * ) SI_UNIT ( .MILLI., .METRE. ) );
#4 = ADVANCED_FACE ( 'NONE', ( #72 ), #51, .T. ) ;
#5 = CARTESIAN_POINT ( 'NONE',  ( 0.0000000000000000000, 0.0000000000000000000, -3.174999999999999800 ) ) ;
#6 = PERSON_AND_ORGANIZATION_ROLE ( 'creator' ) ;
#7 = LOCAL_TIME ( 15, 50, 21.00000000000000000, #10 ) ;
#8 = CC_DESIGN_APPROVAL ( #131, ( #95 ) ) ;
#9 = PERSON_AND_ORGANIZATION_ROLE ( 'creator' ) ;
#10 = COORDINATED_UNIVERSAL_TIME_OFFSET ( 5, 0, .BEHIND. ) ;
#11 = CC_DESIGN_APPROVAL ( #86, ( #97 ) ) ;
#12 = EDGE_CURVE ( 'NONE', #109, #13, #124, .T. ) ;
#13 = VERTEX_POINT ( 'NONE', #156 ) ;
#14 = AXIS2_PLACEMENT_3D ( 'NONE', #28, #126, #18 ) ;
#15 = CC_DESIGN_DATE_AND_TIME_ASSIGNMENT ( #47, #108, ( #97 ) ) ;
#16 = PERSON_AND_ORGANIZATION ( #63, #65 ) ;
#17 = LINE ( 'NONE', #99, #169 ) ;
#18 = DIRECTION ( 'NONE',  ( -1.000000000000000000, 0.0000000000000000000, 0.0000000000000000000 ) ) ;
#19 = DIRECTION ( 'NONE',  ( 0.0000000000000000000, 0.0000000000000000000, 1.000000000000000000 ) ) ;
#20 = DATE_AND_TIME ( #44, #26 ) ;
#21 = FACE_OUTER_BOUND ( 'NONE', #62, .T. ) ;
#22 = DATE_TIME_ROLE ( 'creation_date' ) ;
#23 = AXIS2_PLACEMENT_3D ( 'NONE', #68, #88, #69 ) ;
#24 = CALENDAR_DATE ( 2018, 18, 10 ) ;
#25 =( GEOMETRIC_REPRESENTATION_CONTEXT ( 3 ) GLOBAL_UNCERTAINTY_ASSIGNED_CONTEXT ( ( #78 ) ) GLOBAL_UNIT_ASSIGNED_CONTEXT ( ( #3, #152, #139 ) ) REPRESENTATION_CONTEXT ( 'NONE', 'WORKASPACE' ) );
#26 = LOCAL_TIME ( 15, 50, 21.00000000000000000, #90 ) ;
#27 = ORIENTED_EDGE ( 'NONE', *, *, #52, .T. ) ;
#28 = CARTESIAN_POINT ( 'NONE',  ( 0.0000000000000000000, 0.0000000000000000000, 3.174999999999999800 ) ) ;
#29 = CLOSED_SHELL ( 'NONE', ( #142, #102, #4, #140 ) ) ;
#30 = CARTESIAN_POINT ( 'NONE',  ( 0.0000000000000000000, 0.0000000000000000000, 3.174999999999999800 ) ) ;
#31 = CARTESIAN_POINT ( 'NONE',  ( 19.05000000000000100, 2.332952152375708000E-015, 3.174999999999999800 ) ) ;
#32 = ORIENTED_EDGE ( 'NONE', *, *, #59, .F. ) ;
#33 = ADVANCED_BREP_SHAPE_REPRESENTATION ( 'Web Model 38912_39006', ( #170, #160 ), #25 ) ;
#34 = ORIENTED_EDGE ( 'NONE', *, *, #59, .T. ) ;
#35 = AXIS2_PLACEMENT_3D ( 'NONE', #5, #38, #104 ) ;
#36 = PERSON_AND_ORGANIZATION ( #63, #65 ) ;
#37 = CARTESIAN_POINT ( 'NONE',  ( 0.0000000000000000000, 0.0000000000000000000, -3.174999999999999800 ) ) ;
#38 = DIRECTION ( 'NONE',  ( 0.0000000000000000000, 0.0000000000000000000, 1.000000000000000000 ) ) ;
#39 = DATE_AND_TIME ( #105, #150 ) ;
#40 = DIRECTION ( 'NONE',  ( 0.0000000000000000000, 0.0000000000000000000, 1.000000000000000000 ) ) ;
#41 = CARTESIAN_POINT ( 'NONE',  ( -19.05000000000000100, 0.0000000000000000000, -3.174999999999999800 ) ) ;
#42 = APPROVAL_PERSON_ORGANIZATION ( #79, #131, #56 ) ;
#43 = COORDINATED_UNIVERSAL_TIME_OFFSET ( 5, 0, .BEHIND. ) ;
#44 = CALENDAR_DATE ( 2018, 18, 10 ) ;
#45 = ORIENTED_EDGE ( 'NONE', *, *, #121, .T. ) ;
#46 = CC_DESIGN_PERSON_AND_ORGANIZATION_ASSIGNMENT ( #87, #9, ( #95 ) ) ;
#47 = DATE_AND_TIME ( #92, #116 ) ;
#48 = CIRCLE ( 'NONE', #35, 19.05000000000000100 ) ;
#49 = DIRECTION ( 'NONE',  ( 1.000000000000000000, 0.0000000000000000000, -0.0000000000000000000 ) ) ;
#50 = DIRECTION ( 'NONE',  ( 0.0000000000000000000, 0.0000000000000000000, 1.000000000000000000 ) ) ;
#51 = PLANE ( 'NONE',  #145 ) ;
#52 = EDGE_CURVE ( 'NONE', #67, #13, #120, .T. ) ;
#53 = APPLICATION_PROTOCOL_DEFINITION ( 'international standard', 'config_control_design', 1994, #117 ) ;
#54 = AXIS2_PLACEMENT_3D ( 'NONE', #37, #84, #49 ) ;
#55 = ORIENTED_EDGE ( 'NONE', *, *, #80, .T. ) ;
#56 = APPROVAL_ROLE ( '' ) ;
#57 = APPLICATION_PROTOCOL_DEFINITION ( 'international standard', 'config_control_design', 1994, #73 ) ;
#58 = APPROVAL_STATUS ( 'not_yet_approved' ) ;
#59 = EDGE_CURVE ( 'NONE', #113, #109, #174, .T. ) ;
#60 = APPROVAL_PERSON_ORGANIZATION ( #106, #74, #165 ) ;
#61 = PRODUCT_DEFINITION ( 'UNKNOWN', '', #95, #168 ) ;
#62 = EDGE_LOOP ( 'NONE', ( #98, #32, #45, #27 ) ) ;
#63 = PERSON ( 'UNSPECIFIED', 'UNSPECIFIED', 'UNSPECIFIED', ('UNSPECIFIED'), ('UNSPECIFIED'), ('UNSPECIFIED') ) ;
#64 = PERSON_AND_ORGANIZATION ( #63, #65 ) ;
#65 = ORGANIZATION ( 'UNSPECIFIED', 'UNSPECIFIED', '' ) ;
#66 = CC_DESIGN_PERSON_AND_ORGANIZATION_ASSIGNMENT ( #16, #119, ( #95 ) ) ;
#67 = VERTEX_POINT ( 'NONE', #41 ) ;
#68 = CARTESIAN_POINT ( 'NONE',  ( 0.0000000000000000000, 0.0000000000000000000, 3.174999999999999800 ) ) ;
#69 = DIRECTION ( 'NONE',  ( 1.000000000000000000, 0.0000000000000000000, 0.0000000000000000000 ) ) ;
#70 = COORDINATED_UNIVERSAL_TIME_OFFSET ( 5, 0, .BEHIND. ) ;
#71 = CARTESIAN_POINT ( 'NONE',  ( 0.0000000000000000000, 0.0000000000000000000, -3.174999999999999800 ) ) ;
#72 = FACE_OUTER_BOUND ( 'NONE', #143, .T. ) ;
#73 = APPLICATION_CONTEXT ( 'configuration controlled 3d designs of mechanical parts and assemblies' ) ;
#74 = APPROVAL ( #58, 'UNSPECIFIED' ) ;
#75 = APPROVAL_ROLE ( '' ) ;
#76 = ORIENTED_EDGE ( 'NONE', *, *, #128, .F. ) ;
#77 = PRODUCT_RELATED_PRODUCT_CATEGORY ( 'detail', '', ( #93 ) ) ;
#78 = UNCERTAINTY_MEASURE_WITH_UNIT (LENGTH_MEASURE( 1.000000000000000100E-005 ), #3, 'distance_accuracy_value', 'NONE');
#79 = PERSON_AND_ORGANIZATION ( #63, #65 ) ;
#80 = EDGE_CURVE ( 'NONE', #13, #67, #48, .T. ) ;
#81 = CC_DESIGN_DATE_AND_TIME_ASSIGNMENT ( #111, #22, ( #61 ) ) ;
#82 = CALENDAR_DATE ( 2018, 18, 10 ) ;
#83 = DIRECTION ( 'NONE',  ( 0.0000000000000000000, 0.0000000000000000000, 1.000000000000000000 ) ) ;
#84 = DIRECTION ( 'NONE',  ( 0.0000000000000000000, 0.0000000000000000000, 1.000000000000000000 ) ) ;
#85 = DIRECTION ( 'NONE',  ( 1.000000000000000000, 0.0000000000000000000, -0.0000000000000000000 ) ) ;
#86 = APPROVAL ( #107, 'UNSPECIFIED' ) ;
#87 = PERSON_AND_ORGANIZATION ( #63, #65 ) ;
#88 = DIRECTION ( 'NONE',  ( 0.0000000000000000000, 0.0000000000000000000, 1.000000000000000000 ) ) ;
#89 = PERSON_AND_ORGANIZATION_ROLE ( 'classification_officer' ) ;
#90 = COORDINATED_UNIVERSAL_TIME_OFFSET ( 5, 0, .BEHIND. ) ;
#91 = EDGE_LOOP ( 'NONE', ( #76, #172, #55, #134 ) ) ;
#92 = CALENDAR_DATE ( 2018, 18, 10 ) ;
#93 = PRODUCT ( 'Web Model 38912_39006', 'Web Model 38912_39006', '', ( #163 ) ) ;
#94 = ORIENTED_EDGE ( 'NONE', *, *, #80, .F. ) ;
#95 = PRODUCT_DEFINITION_FORMATION_WITH_SPECIFIED_SOURCE ( 'ANY', '', #93, .NOT_KNOWN. ) ;
#96 = COORDINATED_UNIVERSAL_TIME_OFFSET ( 5, 0, .BEHIND. ) ;
#97 = SECURITY_CLASSIFICATION ( '', '', #118 ) ;
#98 = ORIENTED_EDGE ( 'NONE', *, *, #12, .F. ) ;
#99 = CARTESIAN_POINT ( 'NONE',  ( -19.05000000000000100, 0.0000000000000000000, 3.174999999999999800 ) ) ;
#100 = ORIENTED_EDGE ( 'NONE', *, *, #52, .F. ) ;
#101 = DIRECTION ( 'NONE',  ( 1.000000000000000000, 0.0000000000000000000, 0.0000000000000000000 ) ) ;
#102 = ADVANCED_FACE ( 'NONE', ( #21 ), #162, .T. ) ;
#103 = DIRECTION ( 'NONE',  ( 1.000000000000000000, 0.0000000000000000000, 0.0000000000000000000 ) ) ;
#104 = DIRECTION ( 'NONE',  ( 1.000000000000000000, 0.0000000000000000000, 0.0000000000000000000 ) ) ;
#105 = CALENDAR_DATE ( 2018, 18, 10 ) ;
#106 = PERSON_AND_ORGANIZATION ( #63, #65 ) ;
#107 = APPROVAL_STATUS ( 'not_yet_approved' ) ;
#108 = DATE_TIME_ROLE ( 'classification_date' ) ;
#109 = VERTEX_POINT ( 'NONE', #141 ) ;
#110 = APPROVAL_STATUS ( 'not_yet_approved' ) ;
#111 = DATE_AND_TIME ( #82, #7 ) ;
#112 = SHAPE_DEFINITION_REPRESENTATION ( #154, #33 ) ;
#113 = VERTEX_POINT ( 'NONE', #125 ) ;
#114 = CARTESIAN_POINT ( 'NONE',  ( 0.0000000000000000000, 0.0000000000000000000, 0.0000000000000000000 ) ) ;
#115 = DIRECTION ( 'NONE',  ( -0.0000000000000000000, -0.0000000000000000000, -1.000000000000000000 ) ) ;
#116 = LOCAL_TIME ( 15, 50, 21.00000000000000000, #70 ) ;
#117 = APPLICATION_CONTEXT ( 'configuration controlled 3d designs of mechanical parts and assemblies' ) ;
#118 = SECURITY_CLASSIFICATION_LEVEL ( 'unclassified' ) ;
#119 = PERSON_AND_ORGANIZATION_ROLE ( 'design_supplier' ) ;
#120 = CIRCLE ( 'NONE', #157, 19.05000000000000100 ) ;
#121 = EDGE_CURVE ( 'NONE', #113, #67, #17, .T. ) ;
#122 = APPROVAL_PERSON_ORGANIZATION ( #64, #86, #75 ) ;
#123 = CC_DESIGN_APPROVAL ( #74, ( #61 ) ) ;
#124 = LINE ( 'NONE', #31, #151 ) ;
#125 = CARTESIAN_POINT ( 'NONE',  ( -19.05000000000000100, 0.0000000000000000000, 3.174999999999999800 ) ) ;
#126 = DIRECTION ( 'NONE',  ( -0.0000000000000000000, -0.0000000000000000000, -1.000000000000000000 ) ) ;
#127 = APPROVAL_DATE_TIME ( #164, #86 ) ;
#128 = EDGE_CURVE ( 'NONE', #109, #113, #132, .T. ) ;
#129 = CARTESIAN_POINT ( 'NONE',  ( 0.0000000000000000000, 0.0000000000000000000, 3.174999999999999800 ) ) ;
#130 = FACE_OUTER_BOUND ( 'NONE', #91, .T. ) ;
#131 = APPROVAL ( #110, 'UNSPECIFIED' ) ;
#132 = CIRCLE ( 'NONE', #159, 19.05000000000000100 ) ;
#133 = CC_DESIGN_PERSON_AND_ORGANIZATION_ASSIGNMENT ( #136, #167, ( #93 ) ) ;
#134 = ORIENTED_EDGE ( 'NONE', *, *, #121, .F. ) ;
#135 = APPROVAL_DATE_TIME ( #39, #131 ) ;
#136 = PERSON_AND_ORGANIZATION ( #63, #65 ) ;
#137 = CC_DESIGN_SECURITY_CLASSIFICATION ( #97, ( #95 ) ) ;
#138 = PLANE ( 'NONE',  #54 ) ;
#139 =( NAMED_UNIT ( * ) SI_UNIT ( $, .STERADIAN. ) SOLID_ANGLE_UNIT ( ) );
#140 = ADVANCED_FACE ( 'NONE', ( #147 ), #138, .F. ) ;
#141 = CARTESIAN_POINT ( 'NONE',  ( 19.05000000000000100, 2.332952152375708000E-015, 3.174999999999999800 ) ) ;
#142 = ADVANCED_FACE ( 'NONE', ( #130 ), #175, .T. ) ;
#143 = EDGE_LOOP ( 'NONE', ( #34, #158 ) ) ;
#144 = LOCAL_TIME ( 15, 50, 21.00000000000000000, #43 ) ;
#145 = AXIS2_PLACEMENT_3D ( 'NONE', #129, #83, #85 ) ;
#146 = PERSON_AND_ORGANIZATION ( #63, #65 ) ;
#147 = FACE_OUTER_BOUND ( 'NONE', #166, .T. ) ;
#148 = APPROVAL_DATE_TIME ( #20, #74 ) ;
#149 = CC_DESIGN_PERSON_AND_ORGANIZATION_ASSIGNMENT ( #36, #89, ( #97 ) ) ;
#150 = LOCAL_TIME ( 15, 50, 21.00000000000000000, #96 ) ;
#151 = VECTOR ( 'NONE', #1, 1000.000000000000000 ) ;
#152 =( NAMED_UNIT ( * ) PLANE_ANGLE_UNIT ( ) SI_UNIT ( $, .RADIAN. ) );
#153 = DIRECTION ( 'NONE',  ( -1.000000000000000000, 0.0000000000000000000, 0.0000000000000000000 ) ) ;
#154 = PRODUCT_DEFINITION_SHAPE ( 'NONE', 'NONE',  #61 ) ;
#155 = DIRECTION ( 'NONE',  ( -0.0000000000000000000, -0.0000000000000000000, -1.000000000000000000 ) ) ;
#156 = CARTESIAN_POINT ( 'NONE',  ( 19.05000000000000100, 2.332952152375708000E-015, -3.174999999999999800 ) ) ;
#157 = AXIS2_PLACEMENT_3D ( 'NONE', #71, #50, #103 ) ;
#158 = ORIENTED_EDGE ( 'NONE', *, *, #128, .T. ) ;
#159 = AXIS2_PLACEMENT_3D ( 'NONE', #30, #19, #101 ) ;
#160 = AXIS2_PLACEMENT_3D ( 'NONE', #114, #40, #2 ) ;
#161 = CARTESIAN_POINT ( 'NONE',  ( 0.0000000000000000000, 0.0000000000000000000, 3.174999999999999800 ) ) ;
#162 = CYLINDRICAL_SURFACE ( 'NONE', #171, 19.05000000000000100 ) ;
#163 = MECHANICAL_CONTEXT ( 'NONE', #117, 'mechanical' ) ;
#164 = DATE_AND_TIME ( #24, #144 ) ;
#165 = APPROVAL_ROLE ( '' ) ;
#166 = EDGE_LOOP ( 'NONE', ( #100, #94 ) ) ;
#167 = PERSON_AND_ORGANIZATION_ROLE ( 'design_owner' ) ;
#168 = DESIGN_CONTEXT ( 'detailed design', #73, 'design' ) ;
#169 = VECTOR ( 'NONE', #155, 1000.000000000000000 ) ;
#170 = MANIFOLD_SOLID_BREP ( 'Boss-Extrude1', #29 ) ;
#171 = AXIS2_PLACEMENT_3D ( 'NONE', #161, #115, #153 ) ;
#172 = ORIENTED_EDGE ( 'NONE', *, *, #12, .T. ) ;
#173 = CC_DESIGN_PERSON_AND_ORGANIZATION_ASSIGNMENT ( #146, #6, ( #61 ) ) ;
#174 = CIRCLE ( 'NONE', #23, 19.05000000000000100 ) ;
#175 = CYLINDRICAL_SURFACE ( 'NONE', #14, 19.05000000000000100 ) ;
ENDSEC;
END-ISO-10303-21;
