ISO-10303-21;
HEADER;
FILE_DESCRIPTION (( 'STEP AP203' ),
    '1' );
FILE_NAME ('Web Model 14684_14692.step',
    '2020-04-13T13:39:51',
    ( '' ),
    ( '' ),
    'SwSTEP 2.0',
    'SolidWorks 2018',
    '' );
FILE_SCHEMA (( 'CONFIG_CONTROL_DESIGN' ));
ENDSEC;

DATA;
#1 = DIRECTION ( 'NONE',  ( 0.0000000000000000000, 0.0000000000000000000, 1.000000000000000000 ) ) ;
#2 = DIRECTION ( 'NONE',  ( 0.0000000000000000000, 0.0000000000000000000, -1.000000000000000000 ) ) ;
#3 = DATE_TIME_ROLE ( 'creation_date' ) ;
#4 = APPROVAL_STATUS ( 'not_yet_approved' ) ;
#5 = PERSON_AND_ORGANIZATION_ROLE ( 'design_supplier' ) ;
#6 = PERSON_AND_ORGANIZATION ( #116, #142 ) ;
#7 = LINE ( 'NONE', #11, #137 ) ;
#8 = DIRECTION ( 'NONE',  ( 1.000000000000000000, 0.0000000000000000000, 0.0000000000000000000 ) ) ;
#9 = AXIS2_PLACEMENT_3D ( 'NONE', #31, #1, #48 ) ;
#10 = ORIENTED_EDGE ( 'NONE', *, *, #172, .F. ) ;
#11 = CARTESIAN_POINT ( 'NONE',  ( 1.500000000000000000, 1.102182119232617714E-15, -9.000000000000000000 ) ) ;
#12 = AXIS2_PLACEMENT_3D ( 'NONE', #164, #69, #2 ) ;
#13 = ADVANCED_FACE ( 'NONE', ( #39 ), #105, .F. ) ;
#14 = LOCAL_TIME ( 9, 39, 51.00000000000000000, #87 ) ;
#15 = DIRECTION ( 'NONE',  ( 0.0000000000000000000, 0.0000000000000000000, -1.000000000000000000 ) ) ;
#16 = VERTEX_POINT ( 'NONE', #119 ) ;
#17 = PERSON_AND_ORGANIZATION_ROLE ( 'design_owner' ) ;
#18 = CIRCLE ( 'NONE', #128, 9.000000000000000000 ) ;
#19 = ORIENTED_EDGE ( 'NONE', *, *, #53, .T. ) ;
#20 = APPROVAL_STATUS ( 'not_yet_approved' ) ;
#21 =( GEOMETRIC_REPRESENTATION_CONTEXT ( 3 ) GLOBAL_UNCERTAINTY_ASSIGNED_CONTEXT ( ( #104 ) ) GLOBAL_UNIT_ASSIGNED_CONTEXT ( ( #60, #110, #165 ) ) REPRESENTATION_CONTEXT ( 'NONE', 'WORKASPACE' ) );
#22 = LOCAL_TIME ( 9, 39, 51.00000000000000000, #121 ) ;
#23 = ORIENTED_EDGE ( 'NONE', *, *, #53, .F. ) ;
#24 = PRODUCT_RELATED_PRODUCT_CATEGORY ( 'detail', '', ( #37 ) ) ;
#25 = APPROVAL_PERSON_ORGANIZATION ( #6, #144, #167 ) ;
#26 = ORIENTED_EDGE ( 'NONE', *, *, #109, .F. ) ;
#27 = DIRECTION ( 'NONE',  ( 1.000000000000000000, 0.0000000000000000000, 0.0000000000000000000 ) ) ;
#28 = DIRECTION ( 'NONE',  ( 0.0000000000000000000, 0.0000000000000000000, -1.000000000000000000 ) ) ;
#29 = CARTESIAN_POINT ( 'NONE',  ( 1.500000000000000000, 0.0000000000000000000, 9.000000000000000000 ) ) ;
#30 = CC_DESIGN_PERSON_AND_ORGANIZATION_ASSIGNMENT ( #38, #17, ( #37 ) ) ;
#31 = CARTESIAN_POINT ( 'NONE',  ( 0.0000000000000000000, 0.0000000000000000000, 0.0000000000000000000 ) ) ;
#32 = CARTESIAN_POINT ( 'NONE',  ( 1.500000000000000000, 0.0000000000000000000, 0.0000000000000000000 ) ) ;
#33 = ORIENTED_EDGE ( 'NONE', *, *, #97, .T. ) ;
#34 = CARTESIAN_POINT ( 'NONE',  ( -1.500000000000000000, 0.0000000000000000000, 0.0000000000000000000 ) ) ;
#35 = DIRECTION ( 'NONE',  ( 1.000000000000000000, 0.0000000000000000000, 0.0000000000000000000 ) ) ;
#36 = CC_DESIGN_PERSON_AND_ORGANIZATION_ASSIGNMENT ( #68, #129, ( #169 ) ) ;
#37 = PRODUCT ( 'Web Model 14684_14692', 'Web Model 14684_14692', '', ( #93 ) ) ;
#38 = PERSON_AND_ORGANIZATION ( #116, #142 ) ;
#39 = FACE_OUTER_BOUND ( 'NONE', #101, .T. ) ;
#40 = CC_DESIGN_DATE_AND_TIME_ASSIGNMENT ( #148, #49, ( #77 ) ) ;
#41 = VERTEX_POINT ( 'NONE', #42 ) ;
#42 = CARTESIAN_POINT ( 'NONE',  ( -1.500000000000000000, 1.102182119232617714E-15, -9.000000000000000000 ) ) ;
#43 = CALENDAR_DATE ( 2020, 13, 4 ) ;
#44 = APPLICATION_CONTEXT ( 'configuration controlled 3d designs of mechanical parts and assemblies' ) ;
#45 = ORIENTED_EDGE ( 'NONE', *, *, #117, .T. ) ;
#46 = CARTESIAN_POINT ( 'NONE',  ( 1.500000000000000000, 0.0000000000000000000, 0.0000000000000000000 ) ) ;
#47 = CC_DESIGN_APPROVAL ( #136, ( #132 ) ) ;
#48 = DIRECTION ( 'NONE',  ( 1.000000000000000000, 0.0000000000000000000, 0.0000000000000000000 ) ) ;
#49 = DATE_TIME_ROLE ( 'classification_date' ) ;
#50 = APPROVAL_ROLE ( '' ) ;
#51 = PERSON_AND_ORGANIZATION ( #116, #142 ) ;
#52 = CC_DESIGN_APPROVAL ( #144, ( #169 ) ) ;
#53 = EDGE_CURVE ( 'NONE', #85, #41, #7, .T. ) ;
#54 = APPROVAL_DATE_TIME ( #168, #149 ) ;
#55 = PERSON_AND_ORGANIZATION ( #116, #142 ) ;
#56 = VECTOR ( 'NONE', #120, 1000.000000000000000 ) ;
#57 = CLOSED_SHELL ( 'NONE', ( #160, #163, #134, #13 ) ) ;
#58 = DESIGN_CONTEXT ( 'detailed design', #44, 'design' ) ;
#59 = DIRECTION ( 'NONE',  ( -1.000000000000000000, -0.0000000000000000000, -0.0000000000000000000 ) ) ;
#60 =( LENGTH_UNIT ( ) NAMED_UNIT ( * ) SI_UNIT ( .MILLI., .METRE. ) );
#61 = ORIENTED_EDGE ( 'NONE', *, *, #76, .T. ) ;
#62 = CALENDAR_DATE ( 2020, 13, 4 ) ;
#63 = ORIENTED_EDGE ( 'NONE', *, *, #172, .T. ) ;
#64 = APPROVAL_DATE_TIME ( #170, #136 ) ;
#65 = FACE_OUTER_BOUND ( 'NONE', #157, .T. ) ;
#66 = ORIENTED_EDGE ( 'NONE', *, *, #76, .F. ) ;
#67 = CARTESIAN_POINT ( 'NONE',  ( 1.500000000000000000, 0.0000000000000000000, 0.0000000000000000000 ) ) ;
#68 = PERSON_AND_ORGANIZATION ( #116, #142 ) ;
#69 = DIRECTION ( 'NONE',  ( 1.000000000000000000, 0.0000000000000000000, 0.0000000000000000000 ) ) ;
#70 = DIRECTION ( 'NONE',  ( 1.000000000000000000, 0.0000000000000000000, 0.0000000000000000000 ) ) ;
#71 = CIRCLE ( 'NONE', #131, 9.000000000000000000 ) ;
#72 = SECURITY_CLASSIFICATION_LEVEL ( 'unclassified' ) ;
#73 = COORDINATED_UNIVERSAL_TIME_OFFSET ( 5, 0, .BEHIND. ) ;
#74 = CC_DESIGN_DATE_AND_TIME_ASSIGNMENT ( #79, #3, ( #132 ) ) ;
#75 = PRODUCT_DEFINITION_SHAPE ( 'NONE', 'NONE',  #132 ) ;
#76 = EDGE_CURVE ( 'NONE', #41, #16, #102, .T. ) ;
#77 = SECURITY_CLASSIFICATION ( '', '', #72 ) ;
#78 = CIRCLE ( 'NONE', #115, 9.000000000000000000 ) ;
#79 = DATE_AND_TIME ( #62, #146 ) ;
#80 = DIRECTION ( 'NONE',  ( -1.000000000000000000, -0.0000000000000000000, -0.0000000000000000000 ) ) ;
#81 = DIRECTION ( 'NONE',  ( 0.0000000000000000000, 0.0000000000000000000, -1.000000000000000000 ) ) ;
#82 = AXIS2_PLACEMENT_3D ( 'NONE', #158, #8, #28 ) ;
#83 = APPROVAL_STATUS ( 'not_yet_approved' ) ;
#84 = VERTEX_POINT ( 'NONE', #29 ) ;
#85 = VERTEX_POINT ( 'NONE', #86 ) ;
#86 = CARTESIAN_POINT ( 'NONE',  ( 1.500000000000000000, 1.102182119232617714E-15, -9.000000000000000000 ) ) ;
#87 = COORDINATED_UNIVERSAL_TIME_OFFSET ( 5, 0, .BEHIND. ) ;
#88 = PERSON_AND_ORGANIZATION ( #116, #142 ) ;
#89 = EDGE_LOOP ( 'NONE', ( #33, #45 ) ) ;
#90 = AXIS2_PLACEMENT_3D ( 'NONE', #67, #59, #122 ) ;
#91 = COORDINATED_UNIVERSAL_TIME_OFFSET ( 5, 0, .BEHIND. ) ;
#92 = EDGE_LOOP ( 'NONE', ( #150, #19, #61, #26 ) ) ;
#93 = MECHANICAL_CONTEXT ( 'NONE', #95, 'mechanical' ) ;
#94 = CC_DESIGN_PERSON_AND_ORGANIZATION_ASSIGNMENT ( #166, #151, ( #132 ) ) ;
#95 = APPLICATION_CONTEXT ( 'configuration controlled 3d designs of mechanical parts and assemblies' ) ;
#96 = ADVANCED_BREP_SHAPE_REPRESENTATION ( 'Web Model 14684_14692', ( #159, #9 ), #21 ) ;
#97 = EDGE_CURVE ( 'NONE', #84, #85, #18, .T. ) ;
#98 = CALENDAR_DATE ( 2020, 13, 4 ) ;
#99 = ORIENTED_EDGE ( 'NONE', *, *, #97, .F. ) ;
#100 = AXIS2_PLACEMENT_3D ( 'NONE', #32, #80, #147 ) ;
#101 = EDGE_LOOP ( 'NONE', ( #10, #66 ) ) ;
#102 = CIRCLE ( 'NONE', #106, 9.000000000000000000 ) ;
#103 = CARTESIAN_POINT ( 'NONE',  ( -1.500000000000000000, 0.0000000000000000000, 0.0000000000000000000 ) ) ;
#104 = UNCERTAINTY_MEASURE_WITH_UNIT (LENGTH_MEASURE( 1.000000000000000082E-05 ), #60, 'distance_accuracy_value', 'NONE');
#105 = PLANE ( 'NONE',  #82 ) ;
#106 = AXIS2_PLACEMENT_3D ( 'NONE', #103, #27, #118 ) ;
#107 = DIRECTION ( 'NONE',  ( -1.000000000000000000, -0.0000000000000000000, -0.0000000000000000000 ) ) ;
#108 = COORDINATED_UNIVERSAL_TIME_OFFSET ( 5, 0, .BEHIND. ) ;
#109 = EDGE_CURVE ( 'NONE', #84, #16, #135, .T. ) ;
#110 =( NAMED_UNIT ( * ) PLANE_ANGLE_UNIT ( ) SI_UNIT ( $, .RADIAN. ) );
#111 = CALENDAR_DATE ( 2020, 13, 4 ) ;
#112 = DIRECTION ( 'NONE',  ( 1.000000000000000000, 0.0000000000000000000, 0.0000000000000000000 ) ) ;
#113 = PLANE ( 'NONE',  #12 ) ;
#114 = FACE_OUTER_BOUND ( 'NONE', #89, .T. ) ;
#115 = AXIS2_PLACEMENT_3D ( 'NONE', #46, #35, #15 ) ;
#116 = PERSON ( 'UNSPECIFIED', 'UNSPECIFIED', 'UNSPECIFIED', ('UNSPECIFIED'), ('UNSPECIFIED'), ('UNSPECIFIED') ) ;
#117 = EDGE_CURVE ( 'NONE', #85, #84, #78, .T. ) ;
#118 = DIRECTION ( 'NONE',  ( 0.0000000000000000000, 0.0000000000000000000, -1.000000000000000000 ) ) ;
#119 = CARTESIAN_POINT ( 'NONE',  ( -1.500000000000000000, 0.0000000000000000000, 9.000000000000000000 ) ) ;
#120 = DIRECTION ( 'NONE',  ( -1.000000000000000000, -0.0000000000000000000, -0.0000000000000000000 ) ) ;
#121 = COORDINATED_UNIVERSAL_TIME_OFFSET ( 5, 0, .BEHIND. ) ;
#122 = DIRECTION ( 'NONE',  ( 0.0000000000000000000, 0.0000000000000000000, 1.000000000000000000 ) ) ;
#123 = CARTESIAN_POINT ( 'NONE',  ( 1.500000000000000000, 0.0000000000000000000, 0.0000000000000000000 ) ) ;
#124 = DIRECTION ( 'NONE',  ( 0.0000000000000000000, 0.0000000000000000000, -1.000000000000000000 ) ) ;
#125 = APPLICATION_PROTOCOL_DEFINITION ( 'international standard', 'config_control_design', 1994, #95 ) ;
#126 = APPROVAL_PERSON_ORGANIZATION ( #161, #149, #153 ) ;
#127 = DATE_AND_TIME ( #111, #162 ) ;
#128 = AXIS2_PLACEMENT_3D ( 'NONE', #123, #70, #81 ) ;
#129 = PERSON_AND_ORGANIZATION_ROLE ( 'creator' ) ;
#130 = CYLINDRICAL_SURFACE ( 'NONE', #90, 9.000000000000000000 ) ;
#131 = AXIS2_PLACEMENT_3D ( 'NONE', #34, #112, #124 ) ;
#132 = PRODUCT_DEFINITION ( 'UNKNOWN', '', #169, #58 ) ;
#133 = APPROVAL_PERSON_ORGANIZATION ( #51, #136, #50 ) ;
#134 = ADVANCED_FACE ( 'NONE', ( #114 ), #113, .T. ) ;
#135 = LINE ( 'NONE', #174, #56 ) ;
#136 = APPROVAL ( #83, 'UNSPECIFIED' ) ;
#137 = VECTOR ( 'NONE', #107, 1000.000000000000000 ) ;
#138 = PERSON_AND_ORGANIZATION_ROLE ( 'classification_officer' ) ;
#139 = CC_DESIGN_PERSON_AND_ORGANIZATION_ASSIGNMENT ( #55, #138, ( #77 ) ) ;
#140 = APPROVAL_DATE_TIME ( #127, #144 ) ;
#141 = CC_DESIGN_PERSON_AND_ORGANIZATION_ASSIGNMENT ( #88, #5, ( #169 ) ) ;
#142 = ORGANIZATION ( 'UNSPECIFIED', 'UNSPECIFIED', '' ) ;
#143 = CYLINDRICAL_SURFACE ( 'NONE', #100, 9.000000000000000000 ) ;
#144 = APPROVAL ( #20, 'UNSPECIFIED' ) ;
#145 = SHAPE_DEFINITION_REPRESENTATION ( #75, #96 ) ;
#146 = LOCAL_TIME ( 9, 39, 51.00000000000000000, #91 ) ;
#147 = DIRECTION ( 'NONE',  ( 0.0000000000000000000, 0.0000000000000000000, 1.000000000000000000 ) ) ;
#148 = DATE_AND_TIME ( #156, #22 ) ;
#149 = APPROVAL ( #4, 'UNSPECIFIED' ) ;
#150 = ORIENTED_EDGE ( 'NONE', *, *, #117, .F. ) ;
#151 = PERSON_AND_ORGANIZATION_ROLE ( 'creator' ) ;
#152 = LOCAL_TIME ( 9, 39, 51.00000000000000000, #108 ) ;
#153 = APPROVAL_ROLE ( '' ) ;
#154 = CC_DESIGN_SECURITY_CLASSIFICATION ( #77, ( #169 ) ) ;
#155 = ORIENTED_EDGE ( 'NONE', *, *, #109, .T. ) ;
#156 = CALENDAR_DATE ( 2020, 13, 4 ) ;
#157 = EDGE_LOOP ( 'NONE', ( #23, #99, #155, #63 ) ) ;
#158 = CARTESIAN_POINT ( 'NONE',  ( -1.500000000000000000, 0.0000000000000000000, 0.0000000000000000000 ) ) ;
#159 = MANIFOLD_SOLID_BREP ( 'Boss-Extrude1', #57 ) ;
#160 = ADVANCED_FACE ( 'NONE', ( #173 ), #130, .T. ) ;
#161 = PERSON_AND_ORGANIZATION ( #116, #142 ) ;
#162 = LOCAL_TIME ( 9, 39, 51.00000000000000000, #73 ) ;
#163 = ADVANCED_FACE ( 'NONE', ( #65 ), #143, .T. ) ;
#164 = CARTESIAN_POINT ( 'NONE',  ( 1.500000000000000000, 0.0000000000000000000, 0.0000000000000000000 ) ) ;
#165 =( NAMED_UNIT ( * ) SI_UNIT ( $, .STERADIAN. ) SOLID_ANGLE_UNIT ( ) );
#166 = PERSON_AND_ORGANIZATION ( #116, #142 ) ;
#167 = APPROVAL_ROLE ( '' ) ;
#168 = DATE_AND_TIME ( #43, #14 ) ;
#169 = PRODUCT_DEFINITION_FORMATION_WITH_SPECIFIED_SOURCE ( 'ANY', '', #37, .NOT_KNOWN. ) ;
#170 = DATE_AND_TIME ( #98, #152 ) ;
#171 = APPLICATION_PROTOCOL_DEFINITION ( 'international standard', 'config_control_design', 1994, #44 ) ;
#172 = EDGE_CURVE ( 'NONE', #16, #41, #71, .T. ) ;
#173 = FACE_OUTER_BOUND ( 'NONE', #92, .T. ) ;
#174 = CARTESIAN_POINT ( 'NONE',  ( 1.500000000000000000, 0.0000000000000000000, 9.000000000000000000 ) ) ;
#175 = CC_DESIGN_APPROVAL ( #149, ( #77 ) ) ;
ENDSEC;
END-ISO-10303-21;
