ISO-10303-21;
HEADER;
FILE_DESCRIPTION (( 'STEP AP203' ),
    '1' );
FILE_NAME ('47193_68487.step',
    '2018-01-22T13:12:14',
    ( '' ),
    ( '' ),
    'SwSTEP 2.0',
    'SolidWorks 2016',
    '' );
FILE_SCHEMA (( 'CONFIG_CONTROL_DESIGN' ));
ENDSEC;

DATA;
#1 = PERSON_AND_ORGANIZATION_ROLE ( 'creator' ) ;
#2 = APPROVAL_DATE_TIME ( #84, #168 ) ;
#3 = PRODUCT ( '47193_68487', '47193_68487', '', ( #102 ) ) ;
#4 = ORIENTED_EDGE ( 'NONE', *, *, #132, .F. ) ;
#5 = PERSON_AND_ORGANIZATION ( #45, #116 ) ;
#6 = VERTEX_POINT ( 'NONE', #11 ) ;
#7 = DIRECTION ( 'NONE',  ( 0.0000000000000000000, 0.0000000000000000000, 1.000000000000000000 ) ) ;
#8 = ORIENTED_EDGE ( 'NONE', *, *, #9, .F. ) ;
#9 = EDGE_CURVE ( 'NONE', #46, #6, #29, .T. ) ;
#10 = CARTESIAN_POINT ( 'NONE',  ( 0.0000000000000000000, 0.0000000000000000000, -2.000000000000000000 ) ) ;
#11 = CARTESIAN_POINT ( 'NONE',  ( 6.249999999999998200, 0.0000000000000000000, -2.000000000000000000 ) ) ;
#12 = CYLINDRICAL_SURFACE ( 'NONE', #137, 6.249999999999998200 ) ;
#13 = DIRECTION ( 'NONE',  ( 1.000000000000000000, 0.0000000000000000000, 0.0000000000000000000 ) ) ;
#14 = PERSON_AND_ORGANIZATION ( #45, #116 ) ;
#15 = CC_DESIGN_PERSON_AND_ORGANIZATION_ASSIGNMENT ( #107, #92, ( #77 ) ) ;
#16 = SECURITY_CLASSIFICATION_LEVEL ( 'unclassified' ) ;
#17 = CARTESIAN_POINT ( 'NONE',  ( 0.0000000000000000000, 0.0000000000000000000, -2.000000000000000000 ) ) ;
#18 = DATE_AND_TIME ( #131, #164 ) ;
#19 = FACE_OUTER_BOUND ( 'NONE', #20, .T. ) ;
#20 = EDGE_LOOP ( 'NONE', ( #42, #56, #156, #119 ) ) ;
#21 = EDGE_LOOP ( 'NONE', ( #34, #97, #87, #158 ) ) ;
#22 = CC_DESIGN_PERSON_AND_ORGANIZATION_ASSIGNMENT ( #14, #1, ( #77 ) ) ;
#23 = EDGE_CURVE ( 'NONE', #78, #110, #73, .T. ) ;
#24 = COORDINATED_UNIVERSAL_TIME_OFFSET ( 5, 0, .BEHIND. ) ;
#25 = PERSON_AND_ORGANIZATION_ROLE ( 'design_owner' ) ;
#26 = DATE_TIME_ROLE ( 'classification_date' ) ;
#27 = COORDINATED_UNIVERSAL_TIME_OFFSET ( 5, 0, .BEHIND. ) ;
#28 = CC_DESIGN_APPROVAL ( #85, ( #77 ) ) ;
#29 = CIRCLE ( 'NONE', #114, 6.249999999999998200 ) ;
#30 = CC_DESIGN_PERSON_AND_ORGANIZATION_ASSIGNMENT ( #37, #25, ( #3 ) ) ;
#31 = CARTESIAN_POINT ( 'NONE',  ( 0.0000000000000000000, 0.0000000000000000000, -2.000000000000000000 ) ) ;
#32 = CC_DESIGN_APPROVAL ( #48, ( #171 ) ) ;
#33 = LOCAL_TIME ( 8, 12, 14.00000000000000000, #24 ) ;
#34 = ORIENTED_EDGE ( 'NONE', *, *, #132, .T. ) ;
#35 = DATE_AND_TIME ( #154, #33 ) ;
#36 = CARTESIAN_POINT ( 'NONE',  ( 0.0000000000000000000, 0.0000000000000000000, -2.000000000000000000 ) ) ;
#37 = PERSON_AND_ORGANIZATION ( #45, #116 ) ;
#38 = APPROVAL_PERSON_ORGANIZATION ( #47, #85, #83 ) ;
#39 = DIRECTION ( 'NONE',  ( 0.0000000000000000000, 0.0000000000000000000, 1.000000000000000000 ) ) ;
#40 = APPLICATION_PROTOCOL_DEFINITION ( 'international standard', 'config_control_design', 1994, #115 ) ;
#41 = APPROVAL_ROLE ( '' ) ;
#42 = ORIENTED_EDGE ( 'NONE', *, *, #82, .F. ) ;
#43 = ADVANCED_FACE ( 'NONE', ( #152 ), #100, .T. ) ;
#44 = CC_DESIGN_DATE_AND_TIME_ASSIGNMENT ( #175, #26, ( #171 ) ) ;
#45 = PERSON ( 'UNSPECIFIED', 'UNSPECIFIED', 'UNSPECIFIED', ('UNSPECIFIED'), ('UNSPECIFIED'), ('UNSPECIFIED') ) ;
#46 = VERTEX_POINT ( 'NONE', #144 ) ;
#47 = PERSON_AND_ORGANIZATION ( #45, #116 ) ;
#48 = APPROVAL ( #117, 'UNSPECIFIED' ) ;
#49 = DIRECTION ( 'NONE',  ( 1.000000000000000000, 0.0000000000000000000, 0.0000000000000000000 ) ) ;
#50 = CARTESIAN_POINT ( 'NONE',  ( 0.0000000000000000000, 0.0000000000000000000, 0.0000000000000000000 ) ) ;
#51 = CALENDAR_DATE ( 2018, 22, 1 ) ;
#52 = PLANE ( 'NONE',  #163 ) ;
#53 =( LENGTH_UNIT ( ) NAMED_UNIT ( * ) SI_UNIT ( .MILLI., .METRE. ) );
#54 = APPROVAL_ROLE ( '' ) ;
#55 = ADVANCED_FACE ( 'NONE', ( #142 ), #52, .F. ) ;
#56 = ORIENTED_EDGE ( 'NONE', *, *, #9, .T. ) ;
#57 = CC_DESIGN_DATE_AND_TIME_ASSIGNMENT ( #35, #66, ( #106 ) ) ;
#58 = CALENDAR_DATE ( 2018, 22, 1 ) ;
#59 = VECTOR ( 'NONE', #147, 1000.000000000000000 ) ;
#60 = APPROVAL_PERSON_ORGANIZATION ( #5, #168, #54 ) ;
#61 = DIRECTION ( 'NONE',  ( 1.000000000000000000, 0.0000000000000000000, 0.0000000000000000000 ) ) ;
#62 = DIRECTION ( 'NONE',  ( 0.0000000000000000000, 0.0000000000000000000, 1.000000000000000000 ) ) ;
#63 = LOCAL_TIME ( 8, 12, 14.00000000000000000, #123 ) ;
#64 = ORIENTED_EDGE ( 'NONE', *, *, #165, .T. ) ;
#65 =( NAMED_UNIT ( * ) SI_UNIT ( $, .STERADIAN. ) SOLID_ANGLE_UNIT ( ) );
#66 = DATE_TIME_ROLE ( 'creation_date' ) ;
#67 = CC_DESIGN_PERSON_AND_ORGANIZATION_ASSIGNMENT ( #95, #103, ( #171 ) ) ;
#68 = PERSON_AND_ORGANIZATION ( #45, #116 ) ;
#69 = DIRECTION ( 'NONE',  ( 0.0000000000000000000, 0.0000000000000000000, 1.000000000000000000 ) ) ;
#70 = DIRECTION ( 'NONE',  ( 0.0000000000000000000, 0.0000000000000000000, 1.000000000000000000 ) ) ;
#71 = CIRCLE ( 'NONE', #167, 6.249999999999998200 ) ;
#72 = LINE ( 'NONE', #88, #121 ) ;
#73 = CIRCLE ( 'NONE', #145, 6.249999999999998200 ) ;
#74 = APPROVAL_PERSON_ORGANIZATION ( #153, #48, #41 ) ;
#75 = ADVANCED_BREP_SHAPE_REPRESENTATION ( '47193_68487', ( #140, #159 ), #124 ) ;
#76 = CARTESIAN_POINT ( 'NONE',  ( -6.249999999999998200, 7.654042494670955600E-016, 0.0000000000000000000 ) ) ;
#77 = PRODUCT_DEFINITION_FORMATION_WITH_SPECIFIED_SOURCE ( 'ANY', '', #3, .NOT_KNOWN. ) ;
#78 = VERTEX_POINT ( 'NONE', #122 ) ;
#79 = DIRECTION ( 'NONE',  ( 0.0000000000000000000, 0.0000000000000000000, 1.000000000000000000 ) ) ;
#80 = ORIENTED_EDGE ( 'NONE', *, *, #23, .T. ) ;
#81 = APPLICATION_PROTOCOL_DEFINITION ( 'international standard', 'config_control_design', 1994, #91 ) ;
#82 = EDGE_CURVE ( 'NONE', #46, #110, #89, .T. ) ;
#83 = APPROVAL_ROLE ( '' ) ;
#84 = DATE_AND_TIME ( #58, #111 ) ;
#85 = APPROVAL ( #160, 'UNSPECIFIED' ) ;
#86 = DATE_AND_TIME ( #166, #90 ) ;
#87 = ORIENTED_EDGE ( 'NONE', *, *, #23, .F. ) ;
#88 = CARTESIAN_POINT ( 'NONE',  ( 6.249999999999998200, 0.0000000000000000000, -2.000000000000000000 ) ) ;
#89 = LINE ( 'NONE', #112, #59 ) ;
#90 = LOCAL_TIME ( 8, 12, 14.00000000000000000, #27 ) ;
#91 = APPLICATION_CONTEXT ( 'configuration controlled 3d designs of mechanical parts and assemblies' ) ;
#92 = PERSON_AND_ORGANIZATION_ROLE ( 'design_supplier' ) ;
#93 = CC_DESIGN_APPROVAL ( #168, ( #106 ) ) ;
#94 = CLOSED_SHELL ( 'NONE', ( #104, #161, #55, #43 ) ) ;
#95 = PERSON_AND_ORGANIZATION ( #45, #116 ) ;
#96 = CIRCLE ( 'NONE', #149, 6.249999999999998200 ) ;
#97 = ORIENTED_EDGE ( 'NONE', *, *, #82, .T. ) ;
#98 = DIRECTION ( 'NONE',  ( 1.000000000000000000, 0.0000000000000000000, 0.0000000000000000000 ) ) ;
#99 = COORDINATED_UNIVERSAL_TIME_OFFSET ( 5, 0, .BEHIND. ) ;
#100 = PLANE ( 'NONE',  #162 ) ;
#101 = EDGE_LOOP ( 'NONE', ( #80, #64 ) ) ;
#102 = MECHANICAL_CONTEXT ( 'NONE', #91, 'mechanical' ) ;
#103 = PERSON_AND_ORGANIZATION_ROLE ( 'classification_officer' ) ;
#104 = ADVANCED_FACE ( 'NONE', ( #169 ), #12, .T. ) ;
#105 = SHAPE_DEFINITION_REPRESENTATION ( #146, #75 ) ;
#106 = PRODUCT_DEFINITION ( 'UNKNOWN', '', #77, #138 ) ;
#107 = PERSON_AND_ORGANIZATION ( #45, #116 ) ;
#108 = UNCERTAINTY_MEASURE_WITH_UNIT (LENGTH_MEASURE( 1.000000000000000100E-005 ), #53, 'distance_accuracy_value', 'NONE');
#109 = CC_DESIGN_SECURITY_CLASSIFICATION ( #171, ( #77 ) ) ;
#110 = VERTEX_POINT ( 'NONE', #76 ) ;
#111 = LOCAL_TIME ( 8, 12, 14.00000000000000000, #99 ) ;
#112 = CARTESIAN_POINT ( 'NONE',  ( -6.249999999999998200, 7.654042494670955600E-016, -2.000000000000000000 ) ) ;
#113 = CARTESIAN_POINT ( 'NONE',  ( 0.0000000000000000000, 0.0000000000000000000, 0.0000000000000000000 ) ) ;
#114 = AXIS2_PLACEMENT_3D ( 'NONE', #10, #151, #130 ) ;
#115 = APPLICATION_CONTEXT ( 'configuration controlled 3d designs of mechanical parts and assemblies' ) ;
#116 = ORGANIZATION ( 'UNSPECIFIED', 'UNSPECIFIED', '' ) ;
#117 = APPROVAL_STATUS ( 'not_yet_approved' ) ;
#118 = DIRECTION ( 'NONE',  ( 1.000000000000000000, 0.0000000000000000000, -0.0000000000000000000 ) ) ;
#119 = ORIENTED_EDGE ( 'NONE', *, *, #165, .F. ) ;
#120 = DIRECTION ( 'NONE',  ( 1.000000000000000000, 0.0000000000000000000, 0.0000000000000000000 ) ) ;
#121 = VECTOR ( 'NONE', #172, 1000.000000000000000 ) ;
#122 = CARTESIAN_POINT ( 'NONE',  ( 6.249999999999998200, 0.0000000000000000000, 0.0000000000000000000 ) ) ;
#123 = COORDINATED_UNIVERSAL_TIME_OFFSET ( 5, 0, .BEHIND. ) ;
#124 =( GEOMETRIC_REPRESENTATION_CONTEXT ( 3 ) GLOBAL_UNCERTAINTY_ASSIGNED_CONTEXT ( ( #108 ) ) GLOBAL_UNIT_ASSIGNED_CONTEXT ( ( #53, #148, #65 ) ) REPRESENTATION_CONTEXT ( 'NONE', 'WORKASPACE' ) );
#125 = DIRECTION ( 'NONE',  ( 0.0000000000000000000, 0.0000000000000000000, 1.000000000000000000 ) ) ;
#126 = PRODUCT_RELATED_PRODUCT_CATEGORY ( 'detail', '', ( #3 ) ) ;
#127 = CYLINDRICAL_SURFACE ( 'NONE', #157, 6.249999999999998200 ) ;
#128 = DIRECTION ( 'NONE',  ( 1.000000000000000000, 0.0000000000000000000, 0.0000000000000000000 ) ) ;
#129 = APPROVAL_STATUS ( 'not_yet_approved' ) ;
#130 = DIRECTION ( 'NONE',  ( 1.000000000000000000, 0.0000000000000000000, 0.0000000000000000000 ) ) ;
#131 = CALENDAR_DATE ( 2018, 22, 1 ) ;
#132 = EDGE_CURVE ( 'NONE', #6, #46, #71, .T. ) ;
#133 = APPROVAL_DATE_TIME ( #86, #48 ) ;
#134 = EDGE_CURVE ( 'NONE', #6, #78, #72, .T. ) ;
#135 = DIRECTION ( 'NONE',  ( 0.0000000000000000000, 0.0000000000000000000, 1.000000000000000000 ) ) ;
#136 = CARTESIAN_POINT ( 'NONE',  ( 0.0000000000000000000, 0.0000000000000000000, 0.0000000000000000000 ) ) ;
#137 = AXIS2_PLACEMENT_3D ( 'NONE', #17, #70, #61 ) ;
#138 = DESIGN_CONTEXT ( 'detailed design', #115, 'design' ) ;
#139 = EDGE_LOOP ( 'NONE', ( #4, #8 ) ) ;
#140 = MANIFOLD_SOLID_BREP ( 'Boss-Extrude1', #94 ) ;
#141 = APPROVAL_DATE_TIME ( #18, #85 ) ;
#142 = FACE_OUTER_BOUND ( 'NONE', #139, .T. ) ;
#143 = CARTESIAN_POINT ( 'NONE',  ( 0.0000000000000000000, 0.0000000000000000000, -2.000000000000000000 ) ) ;
#144 = CARTESIAN_POINT ( 'NONE',  ( -6.249999999999998200, 7.654042494670955600E-016, -2.000000000000000000 ) ) ;
#145 = AXIS2_PLACEMENT_3D ( 'NONE', #50, #69, #120 ) ;
#146 = PRODUCT_DEFINITION_SHAPE ( 'NONE', 'NONE',  #106 ) ;
#147 = DIRECTION ( 'NONE',  ( 0.0000000000000000000, 0.0000000000000000000, 1.000000000000000000 ) ) ;
#148 =( NAMED_UNIT ( * ) PLANE_ANGLE_UNIT ( ) SI_UNIT ( $, .RADIAN. ) );
#149 = AXIS2_PLACEMENT_3D ( 'NONE', #113, #39, #128 ) ;
#150 = PERSON_AND_ORGANIZATION_ROLE ( 'creator' ) ;
#151 = DIRECTION ( 'NONE',  ( 0.0000000000000000000, 0.0000000000000000000, 1.000000000000000000 ) ) ;
#152 = FACE_OUTER_BOUND ( 'NONE', #101, .T. ) ;
#153 = PERSON_AND_ORGANIZATION ( #45, #116 ) ;
#154 = CALENDAR_DATE ( 2018, 22, 1 ) ;
#155 = CC_DESIGN_PERSON_AND_ORGANIZATION_ASSIGNMENT ( #68, #150, ( #106 ) ) ;
#156 = ORIENTED_EDGE ( 'NONE', *, *, #134, .T. ) ;
#157 = AXIS2_PLACEMENT_3D ( 'NONE', #143, #62, #98 ) ;
#158 = ORIENTED_EDGE ( 'NONE', *, *, #134, .F. ) ;
#159 = AXIS2_PLACEMENT_3D ( 'NONE', #173, #79, #13 ) ;
#160 = APPROVAL_STATUS ( 'not_yet_approved' ) ;
#161 = ADVANCED_FACE ( 'NONE', ( #19 ), #127, .T. ) ;
#162 = AXIS2_PLACEMENT_3D ( 'NONE', #136, #7, #170 ) ;
#163 = AXIS2_PLACEMENT_3D ( 'NONE', #31, #135, #118 ) ;
#164 = LOCAL_TIME ( 8, 12, 14.00000000000000000, #174 ) ;
#165 = EDGE_CURVE ( 'NONE', #110, #78, #96, .T. ) ;
#166 = CALENDAR_DATE ( 2018, 22, 1 ) ;
#167 = AXIS2_PLACEMENT_3D ( 'NONE', #36, #125, #49 ) ;
#168 = APPROVAL ( #129, 'UNSPECIFIED' ) ;
#169 = FACE_OUTER_BOUND ( 'NONE', #21, .T. ) ;
#170 = DIRECTION ( 'NONE',  ( 1.000000000000000000, 0.0000000000000000000, -0.0000000000000000000 ) ) ;
#171 = SECURITY_CLASSIFICATION ( '', '', #16 ) ;
#172 = DIRECTION ( 'NONE',  ( 0.0000000000000000000, 0.0000000000000000000, 1.000000000000000000 ) ) ;
#173 = CARTESIAN_POINT ( 'NONE',  ( 0.0000000000000000000, 0.0000000000000000000, 0.0000000000000000000 ) ) ;
#174 = COORDINATED_UNIVERSAL_TIME_OFFSET ( 5, 0, .BEHIND. ) ;
#175 = DATE_AND_TIME ( #51, #63 ) ;
ENDSEC;
END-ISO-10303-21;
