ISO-10303-21;
HEADER;
FILE_DESCRIPTION (( 'STEP AP203' ),
    '1' );
FILE_NAME ('step_48998.step',
    '2014-06-05T18:39:59',
    ( '' ),
    ( '' ),
    'SwSTEP 2.0',
    'SolidWorks 2014',
    '' );
FILE_SCHEMA (( 'CONFIG_CONTROL_DESIGN' ));
ENDSEC;

DATA;
#1 = CC_DESIGN_APPROVAL ( #303, ( #288 ) ) ;
#2 = DIRECTION ( 'NONE',  ( -0.7071067811865474600, -0.7071067811865474600, 0.0000000000000000000 ) ) ;
#3 = CLOSED_SHELL ( 'NONE', ( #191, #222, #71, #287, #312 ) ) ;
#4 = ORIENTED_EDGE ( 'NONE', *, *, #317, .F. ) ;
#5 = DIRECTION ( 'NONE',  ( 0.0000000000000000000, 0.0000000000000000000, 1.000000000000000000 ) ) ;
#6 = LINE ( 'NONE', #181, #158 ) ;
#7 = CARTESIAN_POINT ( 'NONE',  ( 0.0000000000000000000, 0.0000000000000000000, 5.000000000000000000 ) ) ;
#8 = APPROVAL_STATUS ( 'not_yet_approved' ) ;
#9 = EDGE_LOOP ( 'NONE', ( #229, #266, #213 ) ) ;
#10 = APPROVAL_DATE_TIME ( #25, #184 ) ;
#11 = EDGE_CURVE ( 'NONE', #18, #30, #218, .T. ) ;
#12 = LOCAL_TIME ( 11, 39, 59.00000000000000000, #69 ) ;
#13 = FACE_OUTER_BOUND ( 'NONE', #258, .T. ) ;
#14 = DIRECTION ( 'NONE',  ( -0.0000000000000000000, 1.000000000000000000, -0.0000000000000000000 ) ) ;
#15 = ADVANCED_FACE ( 'NONE', ( #127 ), #70, .F. ) ;
#16 = CC_DESIGN_PERSON_AND_ORGANIZATION_ASSIGNMENT ( #178, #41, ( #288 ) ) ;
#17 = VERTEX_POINT ( 'NONE', #80 ) ;
#18 = VERTEX_POINT ( 'NONE', #84 ) ;
#19 = PLANE ( 'NONE',  #254 ) ;
#20 = AXIS2_PLACEMENT_3D ( 'NONE', #24, #106, #272 ) ;
#21 = DESIGN_CONTEXT ( 'detailed design', #257, 'design' ) ;
#22 = DIRECTION ( 'NONE',  ( 1.000000000000000000, -1.061207944852635600E-015, -0.0000000000000000000 ) ) ;
#23 = VECTOR ( 'NONE', #78, 1000.000000000000000 ) ;
#24 = CARTESIAN_POINT ( 'NONE',  ( 0.0000000000000000000, 0.0000000000000000000, 0.0000000000000000000 ) ) ;
#25 = DATE_AND_TIME ( #44, #40 ) ;
#26 = CARTESIAN_POINT ( 'NONE',  ( 0.0000000000000000000, 0.0000000000000000000, 5.000000000000000000 ) ) ;
#27 = APPROVAL_DATE_TIME ( #314, #73 ) ;
#28 = FACE_OUTER_BOUND ( 'NONE', #9, .T. ) ;
#29 = EDGE_CURVE ( 'NONE', #165, #291, #289, .T. ) ;
#30 = VERTEX_POINT ( 'NONE', #180 ) ;
#31 = COORDINATED_UNIVERSAL_TIME_OFFSET ( 7, 0, .BEHIND. ) ;
#32 = APPROVAL_PERSON_ORGANIZATION ( #66, #184, #159 ) ;
#33 = CARTESIAN_POINT ( 'NONE',  ( 4.999999999999997300, 4.999999999999997300, 5.000000000000000000 ) ) ;
#34 = VECTOR ( 'NONE', #22, 1000.000000000000000 ) ;
#35 = VECTOR ( 'NONE', #232, 1000.000000000000000 ) ;
#36 = CC_DESIGN_DATE_AND_TIME_ASSIGNMENT ( #175, #308, ( #288 ) ) ;
#37 = EDGE_LOOP ( 'NONE', ( #43, #182, #103 ) ) ;
#38 = DIRECTION ( 'NONE',  ( -0.7071067811865475700, 0.7071067811865475700, 0.0000000000000000000 ) ) ;
#39 = VECTOR ( 'NONE', #268, 1000.000000000000100 ) ;
#40 = LOCAL_TIME ( 11, 39, 59.00000000000000000, #125 ) ;
#41 = PERSON_AND_ORGANIZATION_ROLE ( 'creator' ) ;
#42 = EDGE_LOOP ( 'NONE', ( #292, #214, #150, #249 ) ) ;
#43 = ORIENTED_EDGE ( 'NONE', *, *, #116, .T. ) ;
#44 = CALENDAR_DATE ( 2014, 5, 6 ) ;
#45 = ORIENTED_EDGE ( 'NONE', *, *, #134, .F. ) ;
#46 = ORIENTED_EDGE ( 'NONE', *, *, #317, .T. ) ;
#47 = CARTESIAN_POINT ( 'NONE',  ( 0.0000000000000000000, 4.999999999999997300, 5.000000000000000000 ) ) ;
#48 = EDGE_CURVE ( 'NONE', #176, #291, #110, .T. ) ;
#49 = APPROVAL_ROLE ( '' ) ;
#50 = CARTESIAN_POINT ( 'NONE',  ( 0.0000000000000000000, 4.999999999999997300, 5.000000000000000000 ) ) ;
#51 = FACE_OUTER_BOUND ( 'NONE', #37, .T. ) ;
#52 = ORIENTED_EDGE ( 'NONE', *, *, #81, .T. ) ;
#53 = DIRECTION ( 'NONE',  ( -0.0000000000000000000, -1.000000000000000000, -0.0000000000000000000 ) ) ;
#54 = PERSON_AND_ORGANIZATION_ROLE ( 'creator' ) ;
#55 = PRODUCT_DEFINITION_FORMATION_WITH_SPECIFIED_SOURCE ( 'ANY', '', #200, .NOT_KNOWN. ) ;
#56 = APPLICATION_CONTEXT ( 'configuration controlled 3d designs of mechanical parts and assemblies' ) ;
#57 = CARTESIAN_POINT ( 'NONE',  ( 4.999999999999997300, 4.999999999999997300, 5.000000000000000000 ) ) ;
#58 = DIRECTION ( 'NONE',  ( 0.0000000000000000000, -0.0000000000000000000, -1.000000000000000000 ) ) ;
#59 = LINE ( 'NONE', #283, #35 ) ;
#60 = AXIS2_PLACEMENT_3D ( 'NONE', #273, #38, #2 ) ;
#61 = LINE ( 'NONE', #198, #315 ) ;
#62 = ADVANCED_BREP_SHAPE_REPRESENTATION ( 'step_48998', ( #141, #89, #263 ), #172 ) ;
#63 = DIRECTION ( 'NONE',  ( 1.000000000000000000, 0.0000000000000000000, 0.0000000000000000000 ) ) ;
#64 = LINE ( 'NONE', #26, #193 ) ;
#65 = ORIENTED_EDGE ( 'NONE', *, *, #67, .T. ) ;
#66 = PERSON_AND_ORGANIZATION ( #171, #205 ) ;
#67 = EDGE_CURVE ( 'NONE', #17, #176, #188, .T. ) ;
#68 = DIRECTION ( 'NONE',  ( 0.0000000000000000000, 0.0000000000000000000, -1.000000000000000000 ) ) ;
#69 = COORDINATED_UNIVERSAL_TIME_OFFSET ( 7, 0, .BEHIND. ) ;
#70 = PLANE ( 'NONE',  #219 ) ;
#71 = ADVANCED_FACE ( 'NONE', ( #74 ), #19, .F. ) ;
#72 = DIRECTION ( 'NONE',  ( -1.000000000000000000, -0.0000000000000000000, -0.0000000000000000000 ) ) ;
#73 = APPROVAL ( #8, 'UNSPECIFIED' ) ;
#74 = FACE_OUTER_BOUND ( 'NONE', #302, .T. ) ;
#75 = CALENDAR_DATE ( 2014, 5, 6 ) ;
#76 = DIRECTION ( 'NONE',  ( -1.000000000000000000, -0.0000000000000000000, -0.0000000000000000000 ) ) ;
#77 = DIRECTION ( 'NONE',  ( -0.0000000000000000000, -0.0000000000000000000, -1.000000000000000000 ) ) ;
#78 = DIRECTION ( 'NONE',  ( -0.0000000000000000000, -0.0000000000000000000, -1.000000000000000000 ) ) ;
#79 = ORIENTED_EDGE ( 'NONE', *, *, #162, .T. ) ;
#80 = CARTESIAN_POINT ( 'NONE',  ( 4.999999999999997300, -5.306039724263175300E-015, 5.000000000000000000 ) ) ;
#81 = EDGE_CURVE ( 'NONE', #291, #98, #61, .T. ) ;
#82 = PLANE ( 'NONE',  #310 ) ;
#83 = FACE_OUTER_BOUND ( 'NONE', #42, .T. ) ;
#84 = CARTESIAN_POINT ( 'NONE',  ( 0.0000000000000000000, 0.0000000000000000000, 0.0000000000000000000 ) ) ;
#85 = CC_DESIGN_APPROVAL ( #73, ( #55 ) ) ;
#86 = FACE_OUTER_BOUND ( 'NONE', #120, .T. ) ;
#87 = ORIENTED_EDGE ( 'NONE', *, *, #100, .T. ) ;
#88 = PLANE ( 'NONE',  #129 ) ;
#89 = MANIFOLD_SOLID_BREP ( 'Boss-Extrude2', #208 ) ;
#90 = PLANE ( 'NONE',  #157 ) ;
#91 = SHAPE_DEFINITION_REPRESENTATION ( #318, #62 ) ;
#92 = APPROVAL_ROLE ( '' ) ;
#93 = AXIS2_PLACEMENT_3D ( 'NONE', #270, #237, #58 ) ;
#94 = ADVANCED_FACE ( 'NONE', ( #13 ), #155, .F. ) ;
#95 = DIRECTION ( 'NONE',  ( 0.0000000000000000000, 0.0000000000000000000, -1.000000000000000000 ) ) ;
#96 = VERTEX_POINT ( 'NONE', #199 ) ;
#97 = LINE ( 'NONE', #321, #123 ) ;
#98 = VERTEX_POINT ( 'NONE', #146 ) ;
#99 = EDGE_LOOP ( 'NONE', ( #113, #131, #194, #311 ) ) ;
#100 = EDGE_CURVE ( 'NONE', #176, #174, #140, .T. ) ;
#101 = CARTESIAN_POINT ( 'NONE',  ( 0.0000000000000000000, 0.0000000000000000000, 5.000000000000000000 ) ) ;
#102 = PLANE ( 'NONE',  #20 ) ;
#103 = ORIENTED_EDGE ( 'NONE', *, *, #246, .T. ) ;
#104 = CC_DESIGN_PERSON_AND_ORGANIZATION_ASSIGNMENT ( #241, #54, ( #55 ) ) ;
#105 = CARTESIAN_POINT ( 'NONE',  ( 0.0000000000000000000, 0.0000000000000000000, 5.000000000000000000 ) ) ;
#106 = DIRECTION ( 'NONE',  ( 0.0000000000000000000, 0.0000000000000000000, 1.000000000000000000 ) ) ;
#107 = ORIENTED_EDGE ( 'NONE', *, *, #246, .F. ) ;
#108 = LINE ( 'NONE', #279, #34 ) ;
#109 = CARTESIAN_POINT ( 'NONE',  ( 0.0000000000000000000, 0.0000000000000000000, 0.0000000000000000000 ) ) ;
#110 = LINE ( 'NONE', #183, #242 ) ;
#111 = EDGE_LOOP ( 'NONE', ( #52, #4, #299, #166 ) ) ;
#112 = DIRECTION ( 'NONE',  ( 0.0000000000000000000, 0.0000000000000000000, 1.000000000000000000 ) ) ;
#113 = ORIENTED_EDGE ( 'NONE', *, *, #29, .T. ) ;
#114 = ORIENTED_EDGE ( 'NONE', *, *, #116, .F. ) ;
#115 = CALENDAR_DATE ( 2014, 5, 6 ) ;
#116 = EDGE_CURVE ( 'NONE', #235, #96, #306, .T. ) ;
#117 = PERSON_AND_ORGANIZATION ( #171, #205 ) ;
#118 = VECTOR ( 'NONE', #133, 1000.000000000000100 ) ;
#119 = ADVANCED_FACE ( 'NONE', ( #261 ), #82, .F. ) ;
#120 = EDGE_LOOP ( 'NONE', ( #128, #65, #87 ) ) ;
#121 = CARTESIAN_POINT ( 'NONE',  ( 4.999999999999997300, 4.999999999999997300, 0.0000000000000000000 ) ) ;
#122 = CC_DESIGN_PERSON_AND_ORGANIZATION_ASSIGNMENT ( #117, #217, ( #55 ) ) ;
#123 = VECTOR ( 'NONE', #196, 1000.000000000000000 ) ;
#124 = ORIENTED_EDGE ( 'NONE', *, *, #11, .T. ) ;
#125 = COORDINATED_UNIVERSAL_TIME_OFFSET ( 7, 0, .BEHIND. ) ;
#126 = DIRECTION ( 'NONE',  ( -1.000000000000000000, 0.0000000000000000000, 0.0000000000000000000 ) ) ;
#127 = FACE_OUTER_BOUND ( 'NONE', #111, .T. ) ;
#128 = ORIENTED_EDGE ( 'NONE', *, *, #284, .T. ) ;
#129 = AXIS2_PLACEMENT_3D ( 'NONE', #101, #112, #230 ) ;
#130 = DIRECTION ( 'NONE',  ( -0.0000000000000000000, -0.0000000000000000000, -1.000000000000000000 ) ) ;
#131 = ORIENTED_EDGE ( 'NONE', *, *, #48, .F. ) ;
#132 = CARTESIAN_POINT ( 'NONE',  ( 4.999999999999997300, -5.306039724263175300E-015, 5.000000000000000000 ) ) ;
#133 = DIRECTION ( 'NONE',  ( -0.7071067811865474600, -0.7071067811865474600, -0.0000000000000000000 ) ) ;
#134 = EDGE_CURVE ( 'NONE', #30, #201, #6, .T. ) ;
#135 = DIRECTION ( 'NONE',  ( -1.000000000000000000, 0.0000000000000000000, 0.0000000000000000000 ) ) ;
#136 = DIRECTION ( 'NONE',  ( 0.7071067811865474600, 0.7071067811865474600, 0.0000000000000000000 ) ) ;
#137 = SECURITY_CLASSIFICATION ( '', '', #212 ) ;
#138 = CARTESIAN_POINT ( 'NONE',  ( 4.999999999999997300, -5.306039724263175300E-015, 5.000000000000000000 ) ) ;
#139 =( LENGTH_UNIT ( ) NAMED_UNIT ( * ) SI_UNIT ( .MILLI., .METRE. ) );
#140 = LINE ( 'NONE', #156, #118 ) ;
#141 = MANIFOLD_SOLID_BREP ( 'Boss-Extrude1', #3 ) ;
#142 = ADVANCED_FACE ( 'NONE', ( #28 ), #102, .F. ) ;
#143 = VERTEX_POINT ( 'NONE', #50 ) ;
#144 = FACE_OUTER_BOUND ( 'NONE', #239, .T. ) ;
#145 = PERSON_AND_ORGANIZATION ( #171, #205 ) ;
#146 = CARTESIAN_POINT ( 'NONE',  ( 0.0000000000000000000, 0.0000000000000000000, 0.0000000000000000000 ) ) ;
#147 = EDGE_CURVE ( 'NONE', #96, #30, #210, .T. ) ;
#148 = CARTESIAN_POINT ( 'NONE',  ( 4.999999999999997300, 4.999999999999997300, 5.000000000000000000 ) ) ;
#149 = ORIENTED_EDGE ( 'NONE', *, *, #301, .F. ) ;
#150 = ORIENTED_EDGE ( 'NONE', *, *, #209, .F. ) ;
#151 = CC_DESIGN_PERSON_AND_ORGANIZATION_ASSIGNMENT ( #145, #163, ( #137 ) ) ;
#152 = CARTESIAN_POINT ( 'NONE',  ( 0.0000000000000000000, 0.0000000000000000000, 0.0000000000000000000 ) ) ;
#153 = CARTESIAN_POINT ( 'NONE',  ( 4.999999999999997300, 4.999999999999997300, 0.0000000000000000000 ) ) ;
#154 = PERSON_AND_ORGANIZATION ( #171, #205 ) ;
#155 = PLANE ( 'NONE',  #280 ) ;
#156 = CARTESIAN_POINT ( 'NONE',  ( 0.0000000000000000000, 0.0000000000000000000, 5.000000000000000000 ) ) ;
#157 = AXIS2_PLACEMENT_3D ( 'NONE', #253, #95, #126 ) ;
#158 = VECTOR ( 'NONE', #72, 1000.000000000000000 ) ;
#159 = APPROVAL_ROLE ( '' ) ;
#160 = CARTESIAN_POINT ( 'NONE',  ( 0.0000000000000000000, 4.999999999999997300, 5.000000000000000000 ) ) ;
#161 = CARTESIAN_POINT ( 'NONE',  ( 4.999999999999997300, 4.999999999999997300, 5.000000000000000000 ) ) ;
#162 = EDGE_CURVE ( 'NONE', #143, #201, #305, .T. ) ;
#163 = PERSON_AND_ORGANIZATION_ROLE ( 'classification_officer' ) ;
#164 = CARTESIAN_POINT ( 'NONE',  ( 0.0000000000000000000, 0.0000000000000000000, 5.000000000000000000 ) ) ;
#165 = VERTEX_POINT ( 'NONE', #203 ) ;
#166 = ORIENTED_EDGE ( 'NONE', *, *, #48, .T. ) ;
#167 = CC_DESIGN_DATE_AND_TIME_ASSIGNMENT ( #251, #250, ( #137 ) ) ;
#168 = LINE ( 'NONE', #138, #23 ) ;
#169 = LINE ( 'NONE', #160, #265 ) ;
#170 = DIRECTION ( 'NONE',  ( 0.7071067811865475700, -0.7071067811865475700, 0.0000000000000000000 ) ) ;
#171 = PERSON ( 'UNSPECIFIED', 'UNSPECIFIED', 'UNSPECIFIED', ('UNSPECIFIED'), ('UNSPECIFIED'), ('UNSPECIFIED') ) ;
#172 =( GEOMETRIC_REPRESENTATION_CONTEXT ( 3 ) GLOBAL_UNCERTAINTY_ASSIGNED_CONTEXT ( ( #192 ) ) GLOBAL_UNIT_ASSIGNED_CONTEXT ( ( #139, #260, #231 ) ) REPRESENTATION_CONTEXT ( 'NONE', 'WORKASPACE' ) );
#173 = VECTOR ( 'NONE', #177, 1000.000000000000100 ) ;
#174 = VERTEX_POINT ( 'NONE', #164 ) ;
#175 = DATE_AND_TIME ( #75, #233 ) ;
#176 = VERTEX_POINT ( 'NONE', #57 ) ;
#177 = DIRECTION ( 'NONE',  ( 0.7071067811865474600, 0.7071067811865474600, -0.0000000000000000000 ) ) ;
#178 = PERSON_AND_ORGANIZATION ( #171, #205 ) ;
#179 = APPLICATION_PROTOCOL_DEFINITION ( 'international standard', 'config_control_design', 1994, #56 ) ;
#180 = CARTESIAN_POINT ( 'NONE',  ( 4.999999999999997300, 4.999999999999997300, 0.0000000000000000000 ) ) ;
#181 = CARTESIAN_POINT ( 'NONE',  ( 0.0000000000000000000, 4.999999999999997300, 0.0000000000000000000 ) ) ;
#182 = ORIENTED_EDGE ( 'NONE', *, *, #209, .T. ) ;
#183 = CARTESIAN_POINT ( 'NONE',  ( 4.999999999999997300, 4.999999999999997300, 5.000000000000000000 ) ) ;
#184 = APPROVAL ( #255, 'UNSPECIFIED' ) ;
#185 = APPROVAL_PERSON_ORGANIZATION ( #154, #73, #92 ) ;
#186 = MECHANICAL_CONTEXT ( 'NONE', #56, 'mechanical' ) ;
#187 = VECTOR ( 'NONE', #240, 1000.000000000000000 ) ;
#188 = LINE ( 'NONE', #33, #316 ) ;
#189 = ORIENTED_EDGE ( 'NONE', *, *, #284, .F. ) ;
#190 = AXIS2_PLACEMENT_3D ( 'NONE', #109, #215, #278 ) ;
#191 = ADVANCED_FACE ( 'NONE', ( #144 ), #221, .F. ) ;
#192 = UNCERTAINTY_MEASURE_WITH_UNIT (LENGTH_MEASURE( 1.000000000000000100E-005 ), #139, 'distance_accuracy_value', 'NONE');
#193 = VECTOR ( 'NONE', #202, 1000.000000000000000 ) ;
#194 = ORIENTED_EDGE ( 'NONE', *, *, #67, .F. ) ;
#195 = ORIENTED_EDGE ( 'NONE', *, *, #271, .T. ) ;
#196 = DIRECTION ( 'NONE',  ( -0.0000000000000000000, -1.000000000000000000, -0.0000000000000000000 ) ) ;
#197 = PERSON_AND_ORGANIZATION ( #171, #205 ) ;
#198 = CARTESIAN_POINT ( 'NONE',  ( 0.0000000000000000000, 0.0000000000000000000, 0.0000000000000000000 ) ) ;
#199 = CARTESIAN_POINT ( 'NONE',  ( 4.999999999999997300, 4.999999999999997300, 5.000000000000000000 ) ) ;
#200 = PRODUCT ( 'step_48998', 'step_48998', '', ( #186 ) ) ;
#201 = VERTEX_POINT ( 'NONE', #264 ) ;
#202 = DIRECTION ( 'NONE',  ( -0.0000000000000000000, -0.0000000000000000000, -1.000000000000000000 ) ) ;
#203 = CARTESIAN_POINT ( 'NONE',  ( 4.999999999999997300, -5.306039724263175300E-015, 0.0000000000000000000 ) ) ;
#204 = CARTESIAN_POINT ( 'NONE',  ( 4.999999999999997300, 4.999999999999997300, 0.0000000000000000000 ) ) ;
#205 = ORGANIZATION ( 'UNSPECIFIED', 'UNSPECIFIED', '' ) ;
#206 = CC_DESIGN_APPROVAL ( #184, ( #137 ) ) ;
#207 = VECTOR ( 'NONE', #319, 1000.000000000000000 ) ;
#208 = CLOSED_SHELL ( 'NONE', ( #94, #119, #15, #247, #142 ) ) ;
#209 = EDGE_CURVE ( 'NONE', #96, #143, #169, .T. ) ;
#210 = LINE ( 'NONE', #274, #187 ) ;
#211 = PLANE ( 'NONE',  #190 ) ;
#212 = SECURITY_CLASSIFICATION_LEVEL ( 'unclassified' ) ;
#213 = ORIENTED_EDGE ( 'NONE', *, *, #29, .F. ) ;
#214 = ORIENTED_EDGE ( 'NONE', *, *, #162, .F. ) ;
#215 = DIRECTION ( 'NONE',  ( 0.0000000000000000000, 0.0000000000000000000, -1.000000000000000000 ) ) ;
#216 = APPROVAL_PERSON_ORGANIZATION ( #197, #303, #49 ) ;
#217 = PERSON_AND_ORGANIZATION_ROLE ( 'design_supplier' ) ;
#218 = LINE ( 'NONE', #153, #39 ) ;
#219 = AXIS2_PLACEMENT_3D ( 'NONE', #286, #170, #136 ) ;
#220 = LOCAL_TIME ( 11, 39, 59.00000000000000000, #309 ) ;
#221 = PLANE ( 'NONE',  #60 ) ;
#222 = ADVANCED_FACE ( 'NONE', ( #83 ), #304, .F. ) ;
#223 = DIRECTION ( 'NONE',  ( -0.0000000000000000000, 1.000000000000000000, -0.0000000000000000000 ) ) ;
#224 = ORIENTED_EDGE ( 'NONE', *, *, #228, .F. ) ;
#225 = APPLICATION_PROTOCOL_DEFINITION ( 'international standard', 'config_control_design', 1994, #257 ) ;
#226 = EDGE_LOOP ( 'NONE', ( #252, #224, #45 ) ) ;
#227 = CC_DESIGN_SECURITY_CLASSIFICATION ( #137, ( #55 ) ) ;
#228 = EDGE_CURVE ( 'NONE', #201, #18, #245, .T. ) ;
#229 = ORIENTED_EDGE ( 'NONE', *, *, #271, .F. ) ;
#230 = DIRECTION ( 'NONE',  ( 1.000000000000000000, 0.0000000000000000000, -0.0000000000000000000 ) ) ;
#231 =( NAMED_UNIT ( * ) SI_UNIT ( $, .STERADIAN. ) SOLID_ANGLE_UNIT ( ) );
#232 = DIRECTION ( 'NONE',  ( -0.0000000000000000000, -0.0000000000000000000, -1.000000000000000000 ) ) ;
#233 = LOCAL_TIME ( 11, 39, 59.00000000000000000, #31 ) ;
#234 = DIRECTION ( 'NONE',  ( 1.000000000000000000, 0.0000000000000000000, 0.0000000000000000000 ) ) ;
#235 = VERTEX_POINT ( 'NONE', #105 ) ;
#236 = ORIENTED_EDGE ( 'NONE', *, *, #262, .F. ) ;
#237 = DIRECTION ( 'NONE',  ( 0.0000000000000000000, -1.000000000000000000, 0.0000000000000000000 ) ) ;
#238 = DIRECTION ( 'NONE',  ( 0.0000000000000000000, 0.0000000000000000000, 1.000000000000000000 ) ) ;
#239 = EDGE_LOOP ( 'NONE', ( #124, #320, #114, #277 ) ) ;
#240 = DIRECTION ( 'NONE',  ( -0.0000000000000000000, -0.0000000000000000000, -1.000000000000000000 ) ) ;
#241 = PERSON_AND_ORGANIZATION ( #171, #205 ) ;
#242 = VECTOR ( 'NONE', #130, 1000.000000000000000 ) ;
#243 = DIRECTION ( 'NONE',  ( -0.7071067811865474600, -0.7071067811865474600, -0.0000000000000000000 ) ) ;
#244 = PRODUCT_RELATED_PRODUCT_CATEGORY ( 'detail', '', ( #200 ) ) ;
#245 = LINE ( 'NONE', #152, #281 ) ;
#246 = EDGE_CURVE ( 'NONE', #143, #235, #97, .T. ) ;
#247 = ADVANCED_FACE ( 'NONE', ( #86 ), #88, .T. ) ;
#248 = VECTOR ( 'NONE', #77, 1000.000000000000000 ) ;
#249 = ORIENTED_EDGE ( 'NONE', *, *, #147, .T. ) ;
#250 = DATE_TIME_ROLE ( 'classification_date' ) ;
#251 = DATE_AND_TIME ( #259, #267 ) ;
#252 = ORIENTED_EDGE ( 'NONE', *, *, #11, .F. ) ;
#253 = CARTESIAN_POINT ( 'NONE',  ( 0.0000000000000000000, 0.0000000000000000000, 5.000000000000000000 ) ) ;
#254 = AXIS2_PLACEMENT_3D ( 'NONE', #7, #63, #68 ) ;
#255 = APPROVAL_STATUS ( 'not_yet_approved' ) ;
#256 = FACE_OUTER_BOUND ( 'NONE', #226, .T. ) ;
#257 = APPLICATION_CONTEXT ( 'configuration controlled 3d designs of mechanical parts and assemblies' ) ;
#258 = EDGE_LOOP ( 'NONE', ( #195, #236, #189, #46 ) ) ;
#259 = CALENDAR_DATE ( 2014, 5, 6 ) ;
#260 =( NAMED_UNIT ( * ) PLANE_ANGLE_UNIT ( ) SI_UNIT ( $, .RADIAN. ) );
#261 = FACE_OUTER_BOUND ( 'NONE', #99, .T. ) ;
#262 = EDGE_CURVE ( 'NONE', #17, #165, #168, .T. ) ;
#263 = AXIS2_PLACEMENT_3D ( 'NONE', #295, #238, #234 ) ;
#264 = CARTESIAN_POINT ( 'NONE',  ( 0.0000000000000000000, 4.999999999999997300, 0.0000000000000000000 ) ) ;
#265 = VECTOR ( 'NONE', #76, 1000.000000000000000 ) ;
#266 = ORIENTED_EDGE ( 'NONE', *, *, #81, .F. ) ;
#267 = LOCAL_TIME ( 11, 39, 59.00000000000000000, #290 ) ;
#268 = DIRECTION ( 'NONE',  ( 0.7071067811865474600, 0.7071067811865474600, -0.0000000000000000000 ) ) ;
#269 = APPROVAL_STATUS ( 'not_yet_approved' ) ;
#270 = CARTESIAN_POINT ( 'NONE',  ( 0.0000000000000000000, 4.999999999999997300, 5.000000000000000000 ) ) ;
#271 = EDGE_CURVE ( 'NONE', #98, #165, #285, .T. ) ;
#272 = DIRECTION ( 'NONE',  ( 1.000000000000000000, 0.0000000000000000000, -0.0000000000000000000 ) ) ;
#273 = CARTESIAN_POINT ( 'NONE',  ( 4.999999999999997300, 4.999999999999997300, 5.000000000000000000 ) ) ;
#274 = CARTESIAN_POINT ( 'NONE',  ( 4.999999999999997300, 4.999999999999997300, 5.000000000000000000 ) ) ;
#275 = PERSON_AND_ORGANIZATION_ROLE ( 'design_owner' ) ;
#276 = CC_DESIGN_PERSON_AND_ORGANIZATION_ASSIGNMENT ( #296, #275, ( #200 ) ) ;
#277 = ORIENTED_EDGE ( 'NONE', *, *, #301, .T. ) ;
#278 = DIRECTION ( 'NONE',  ( -1.000000000000000000, 0.0000000000000000000, 0.0000000000000000000 ) ) ;
#279 = CARTESIAN_POINT ( 'NONE',  ( 4.999999999999997300, -5.306039724263175300E-015, 5.000000000000000000 ) ) ;
#280 = AXIS2_PLACEMENT_3D ( 'NONE', #132, #294, #300 ) ;
#281 = VECTOR ( 'NONE', #53, 1000.000000000000000 ) ;
#282 = ORIENTED_EDGE ( 'NONE', *, *, #228, .T. ) ;
#283 = CARTESIAN_POINT ( 'NONE',  ( 0.0000000000000000000, 0.0000000000000000000, 5.000000000000000000 ) ) ;
#284 = EDGE_CURVE ( 'NONE', #174, #17, #108, .T. ) ;
#285 = LINE ( 'NONE', #313, #207 ) ;
#286 = CARTESIAN_POINT ( 'NONE',  ( 0.0000000000000000000, 0.0000000000000000000, 5.000000000000000000 ) ) ;
#287 = ADVANCED_FACE ( 'NONE', ( #51 ), #90, .F. ) ;
#288 = PRODUCT_DEFINITION ( 'UNKNOWN', '', #55, #21 ) ;
#289 = LINE ( 'NONE', #121, #297 ) ;
#290 = COORDINATED_UNIVERSAL_TIME_OFFSET ( 7, 0, .BEHIND. ) ;
#291 = VERTEX_POINT ( 'NONE', #204 ) ;
#292 = ORIENTED_EDGE ( 'NONE', *, *, #134, .T. ) ;
#293 = APPROVAL_DATE_TIME ( #307, #303 ) ;
#294 = DIRECTION ( 'NONE',  ( 1.061207944852635800E-015, 1.000000000000000000, -0.0000000000000000000 ) ) ;
#295 = CARTESIAN_POINT ( 'NONE',  ( 0.0000000000000000000, 0.0000000000000000000, 0.0000000000000000000 ) ) ;
#296 = PERSON_AND_ORGANIZATION ( #171, #205 ) ;
#297 = VECTOR ( 'NONE', #223, 1000.000000000000000 ) ;
#298 = CALENDAR_DATE ( 2014, 5, 6 ) ;
#299 = ORIENTED_EDGE ( 'NONE', *, *, #100, .F. ) ;
#300 = DIRECTION ( 'NONE',  ( -1.000000000000000000, 1.061207944852635800E-015, 0.0000000000000000000 ) ) ;
#301 = EDGE_CURVE ( 'NONE', #235, #18, #59, .T. ) ;
#302 = EDGE_LOOP ( 'NONE', ( #282, #149, #107, #79 ) ) ;
#303 = APPROVAL ( #269, 'UNSPECIFIED' ) ;
#304 = PLANE ( 'NONE',  #93 ) ;
#305 = LINE ( 'NONE', #47, #248 ) ;
#306 = LINE ( 'NONE', #161, #173 ) ;
#307 = DATE_AND_TIME ( #115, #220 ) ;
#308 = DATE_TIME_ROLE ( 'creation_date' ) ;
#309 = COORDINATED_UNIVERSAL_TIME_OFFSET ( 7, 0, .BEHIND. ) ;
#310 = AXIS2_PLACEMENT_3D ( 'NONE', #148, #135, #5 ) ;
#311 = ORIENTED_EDGE ( 'NONE', *, *, #262, .T. ) ;
#312 = ADVANCED_FACE ( 'NONE', ( #256 ), #211, .T. ) ;
#313 = CARTESIAN_POINT ( 'NONE',  ( 4.999999999999997300, -5.306039724263175300E-015, 0.0000000000000000000 ) ) ;
#314 = DATE_AND_TIME ( #298, #12 ) ;
#315 = VECTOR ( 'NONE', #243, 1000.000000000000100 ) ;
#316 = VECTOR ( 'NONE', #14, 1000.000000000000000 ) ;
#317 = EDGE_CURVE ( 'NONE', #174, #98, #64, .T. ) ;
#318 = PRODUCT_DEFINITION_SHAPE ( 'NONE', 'NONE',  #288 ) ;
#319 = DIRECTION ( 'NONE',  ( 1.000000000000000000, -1.061207944852635600E-015, -0.0000000000000000000 ) ) ;
#320 = ORIENTED_EDGE ( 'NONE', *, *, #147, .F. ) ;
#321 = CARTESIAN_POINT ( 'NONE',  ( 0.0000000000000000000, 0.0000000000000000000, 5.000000000000000000 ) ) ;
ENDSEC;
END-ISO-10303-21;
