ISO-10303-21;
HEADER;
FILE_DESCRIPTION (( 'STEP AP203' ),
    '1' );
FILE_NAME ('Web Model 45854.STEP',
    '2017-01-31T15:18:42',
    ( '' ),
    ( '' ),
    'SwSTEP 2.0',
    'SolidWorks 2016',
    '' );
FILE_SCHEMA (( 'CONFIG_CONTROL_DESIGN' ));
ENDSEC;

DATA;
#1 = CC_DESIGN_APPROVAL ( #230, ( #20 ) ) ;
#2 = PLANE ( 'NONE',  #219 ) ;
#3 = CARTESIAN_POINT ( 'NONE',  ( 0.0000000000000000000, 50.00000000000000000, 3.000000000000000000 ) ) ;
#4 = ORIENTED_EDGE ( 'NONE', *, *, #28, .F. ) ;
#5 = APPROVAL_DATE_TIME ( #93, #41 ) ;
#6 = PLANE ( 'NONE',  #144 ) ;
#7 = CC_DESIGN_PERSON_AND_ORGANIZATION_ASSIGNMENT ( #236, #237, ( #190 ) ) ;
#8 = LINE ( 'NONE', #125, #82 ) ;
#9 = PERSON_AND_ORGANIZATION ( #222, #42 ) ;
#10 = LINE ( 'NONE', #118, #36 ) ;
#11 = ORIENTED_EDGE ( 'NONE', *, *, #105, .F. ) ;
#12 = EDGE_LOOP ( 'NONE', ( #77, #156, #167, #224 ) ) ;
#13 = PERSON_AND_ORGANIZATION ( #222, #42 ) ;
#14 = VERTEX_POINT ( 'NONE', #69 ) ;
#15 = ADVANCED_FACE ( 'NONE', ( #38 ), #6, .T. ) ;
#16 = DIRECTION ( 'NONE',  ( 1.000000000000000000, 0.0000000000000000000, 0.0000000000000000000 ) ) ;
#17 = DIRECTION ( 'NONE',  ( -0.0000000000000000000, -1.000000000000000000, -0.0000000000000000000 ) ) ;
#18 = DIRECTION ( 'NONE',  ( -0.0000000000000000000, -0.0000000000000000000, -1.000000000000000000 ) ) ;
#19 = CALENDAR_DATE ( 2017, 31, 1 ) ;
#20 = PRODUCT_DEFINITION ( 'UNKNOWN', '', #135, #50 ) ;
#21 = ORIENTED_EDGE ( 'NONE', *, *, #25, .F. ) ;
#22 = DIRECTION ( 'NONE',  ( 0.0000000000000000000, -1.000000000000000000, 0.0000000000000000000 ) ) ;
#23 = VERTEX_POINT ( 'NONE', #128 ) ;
#24 = ADVANCED_BREP_SHAPE_REPRESENTATION ( 'Web Model 45854', ( #59, #186 ), #73 ) ;
#25 = EDGE_CURVE ( 'NONE', #68, #14, #195, .T. ) ;
#26 = ORIENTED_EDGE ( 'NONE', *, *, #170, .T. ) ;
#27 = LINE ( 'NONE', #211, #220 ) ;
#28 = EDGE_CURVE ( 'NONE', #231, #52, #8, .T. ) ;
#29 = COORDINATED_UNIVERSAL_TIME_OFFSET ( 5, 0, .BEHIND. ) ;
#30 = LINE ( 'NONE', #76, #95 ) ;
#31 = ORIENTED_EDGE ( 'NONE', *, *, #212, .F. ) ;
#32 = PLANE ( 'NONE',  #198 ) ;
#33 = LINE ( 'NONE', #200, #168 ) ;
#34 = CARTESIAN_POINT ( 'NONE',  ( 0.0000000000000000000, 50.00000000000000000, 3.000000000000000000 ) ) ;
#35 = PERSON_AND_ORGANIZATION_ROLE ( 'creator' ) ;
#36 = VECTOR ( 'NONE', #210, 1000.000000000000000 ) ;
#37 = COORDINATED_UNIVERSAL_TIME_OFFSET ( 5, 0, .BEHIND. ) ;
#38 = FACE_OUTER_BOUND ( 'NONE', #12, .T. ) ;
#39 = PLANE ( 'NONE',  #43 ) ;
#40 = VERTEX_POINT ( 'NONE', #109 ) ;
#41 = APPROVAL ( #104, 'UNSPECIFIED' ) ;
#42 = ORGANIZATION ( 'UNSPECIFIED', 'UNSPECIFIED', '' ) ;
#43 = AXIS2_PLACEMENT_3D ( 'NONE', #225, #108, #146 ) ;
#44 = VECTOR ( 'NONE', #67, 1000.000000000000000 ) ;
#45 = PRODUCT_DEFINITION_SHAPE ( 'NONE', 'NONE',  #20 ) ;
#46 = ORIENTED_EDGE ( 'NONE', *, *, #105, .T. ) ;
#47 = DATE_AND_TIME ( #94, #177 ) ;
#48 = PERSON_AND_ORGANIZATION ( #222, #42 ) ;
#49 = MECHANICAL_CONTEXT ( 'NONE', #126, 'mechanical' ) ;
#50 = DESIGN_CONTEXT ( 'detailed design', #81, 'design' ) ;
#51 = CARTESIAN_POINT ( 'NONE',  ( 50.00000000000000000, 0.0000000000000000000, 3.000000000000000000 ) ) ;
#52 = VERTEX_POINT ( 'NONE', #182 ) ;
#53 = DIRECTION ( 'NONE',  ( 0.0000000000000000000, 0.0000000000000000000, -1.000000000000000000 ) ) ;
#54 = VECTOR ( 'NONE', #17, 1000.000000000000000 ) ;
#55 = DATE_AND_TIME ( #101, #204 ) ;
#56 = ORIENTED_EDGE ( 'NONE', *, *, #185, .T. ) ;
#57 = FACE_OUTER_BOUND ( 'NONE', #145, .T. ) ;
#58 = LOCAL_TIME ( 10, 18, 42.00000000000000000, #29 ) ;
#59 = MANIFOLD_SOLID_BREP ( 'Extrude1', #87 ) ;
#60 = CARTESIAN_POINT ( 'NONE',  ( 50.00000000000000000, 0.0000000000000000000, 3.000000000000000000 ) ) ;
#61 = ORIENTED_EDGE ( 'NONE', *, *, #163, .F. ) ;
#62 = ADVANCED_FACE ( 'NONE', ( #188 ), #39, .F. ) ;
#63 = DIRECTION ( 'NONE',  ( -0.0000000000000000000, -0.0000000000000000000, -1.000000000000000000 ) ) ;
#64 = APPROVAL_STATUS ( 'not_yet_approved' ) ;
#65 = APPROVAL_PERSON_ORGANIZATION ( #13, #150, #140 ) ;
#66 = ORIENTED_EDGE ( 'NONE', *, *, #185, .F. ) ;
#67 = DIRECTION ( 'NONE',  ( -1.000000000000000000, -0.0000000000000000000, -0.0000000000000000000 ) ) ;
#68 = VERTEX_POINT ( 'NONE', #51 ) ;
#69 = CARTESIAN_POINT ( 'NONE',  ( 50.00000000000000000, 0.0000000000000000000, 0.0000000000000000000 ) ) ;
#70 = DIRECTION ( 'NONE',  ( -0.0000000000000000000, -0.0000000000000000000, -1.000000000000000000 ) ) ;
#71 = CC_DESIGN_APPROVAL ( #41, ( #190 ) ) ;
#72 = APPROVAL_PERSON_ORGANIZATION ( #196, #41, #197 ) ;
#73 =( GEOMETRIC_REPRESENTATION_CONTEXT ( 3 ) GLOBAL_UNCERTAINTY_ASSIGNED_CONTEXT ( ( #203 ) ) GLOBAL_UNIT_ASSIGNED_CONTEXT ( ( #174, #173, #139 ) ) REPRESENTATION_CONTEXT ( 'NONE', 'WORKASPACE' ) );
#74 = DIRECTION ( 'NONE',  ( 0.0000000000000000000, 0.0000000000000000000, 1.000000000000000000 ) ) ;
#75 = COORDINATED_UNIVERSAL_TIME_OFFSET ( 5, 0, .BEHIND. ) ;
#76 = CARTESIAN_POINT ( 'NONE',  ( 0.0000000000000000000, 50.00000000000000000, 3.000000000000000000 ) ) ;
#77 = ORIENTED_EDGE ( 'NONE', *, *, #165, .F. ) ;
#78 = PERSON_AND_ORGANIZATION_ROLE ( 'design_owner' ) ;
#79 = EDGE_CURVE ( 'NONE', #136, #14, #130, .T. ) ;
#80 = CARTESIAN_POINT ( 'NONE',  ( 0.0000000000000000000, 0.0000000000000000000, 3.000000000000000000 ) ) ;
#81 = APPLICATION_CONTEXT ( 'configuration controlled 3d designs of mechanical parts and assemblies' ) ;
#82 = VECTOR ( 'NONE', #70, 1000.000000000000000 ) ;
#83 = PERSON_AND_ORGANIZATION ( #222, #42 ) ;
#84 = AXIS2_PLACEMENT_3D ( 'NONE', #86, #164, #53 ) ;
#85 = DIRECTION ( 'NONE',  ( 0.0000000000000000000, 0.0000000000000000000, -1.000000000000000000 ) ) ;
#86 = CARTESIAN_POINT ( 'NONE',  ( 0.0000000000000000000, 0.0000000000000000000, 3.000000000000000000 ) ) ;
#87 = CLOSED_SHELL ( 'NONE', ( #194, #100, #62, #97, #172, #15 ) ) ;
#88 = FACE_OUTER_BOUND ( 'NONE', #187, .T. ) ;
#89 = LINE ( 'NONE', #60, #132 ) ;
#90 = EDGE_CURVE ( 'NONE', #52, #112, #33, .T. ) ;
#91 = ORIENTED_EDGE ( 'NONE', *, *, #163, .T. ) ;
#92 = EDGE_LOOP ( 'NONE', ( #160, #4, #61, #133 ) ) ;
#93 = DATE_AND_TIME ( #19, #58 ) ;
#94 = CALENDAR_DATE ( 2017, 31, 1 ) ;
#95 = VECTOR ( 'NONE', #18, 1000.000000000000000 ) ;
#96 = ORIENTED_EDGE ( 'NONE', *, *, #170, .F. ) ;
#97 = ADVANCED_FACE ( 'NONE', ( #110 ), #2, .F. ) ;
#98 = CARTESIAN_POINT ( 'NONE',  ( 0.0000000000000000000, 50.00000000000000000, 3.000000000000000000 ) ) ;
#99 = LINE ( 'NONE', #102, #54 ) ;
#100 = ADVANCED_FACE ( 'NONE', ( #57 ), #32, .F. ) ;
#101 = CALENDAR_DATE ( 2017, 31, 1 ) ;
#102 = CARTESIAN_POINT ( 'NONE',  ( 0.0000000000000000000, 0.0000000000000000000, 3.000000000000000000 ) ) ;
#103 = APPLICATION_PROTOCOL_DEFINITION ( 'international standard', 'config_control_design', 1994, #81 ) ;
#104 = APPROVAL_STATUS ( 'not_yet_approved' ) ;
#105 = EDGE_CURVE ( 'NONE', #23, #40, #99, .T. ) ;
#106 = DIRECTION ( 'NONE',  ( -1.000000000000000000, 0.0000000000000000000, -0.0000000000000000000 ) ) ;
#107 = ORIENTED_EDGE ( 'NONE', *, *, #155, .F. ) ;
#108 = DIRECTION ( 'NONE',  ( -1.000000000000000000, 0.0000000000000000000, 0.0000000000000000000 ) ) ;
#109 = CARTESIAN_POINT ( 'NONE',  ( 0.0000000000000000000, 0.0000000000000000000, 3.000000000000000000 ) ) ;
#110 = FACE_OUTER_BOUND ( 'NONE', #192, .T. ) ;
#111 = CC_DESIGN_PERSON_AND_ORGANIZATION_ASSIGNMENT ( #131, #175, ( #20 ) ) ;
#112 = VERTEX_POINT ( 'NONE', #193 ) ;
#113 = CC_DESIGN_APPROVAL ( #150, ( #135 ) ) ;
#114 = VECTOR ( 'NONE', #16, 1000.000000000000000 ) ;
#115 = LOCAL_TIME ( 10, 18, 42.00000000000000000, #75 ) ;
#116 = CARTESIAN_POINT ( 'NONE',  ( 0.0000000000000000000, 0.0000000000000000000, 0.0000000000000000000 ) ) ;
#117 = EDGE_LOOP ( 'NONE', ( #209, #66, #11, #181 ) ) ;
#118 = CARTESIAN_POINT ( 'NONE',  ( 0.0000000000000000000, 0.0000000000000000000, 0.0000000000000000000 ) ) ;
#119 = LINE ( 'NONE', #98, #44 ) ;
#120 = DATE_TIME_ROLE ( 'classification_date' ) ;
#121 = PERSON_AND_ORGANIZATION ( #222, #42 ) ;
#122 = PRODUCT ( 'Web Model 45854', 'Web Model 45854', '', ( #49 ) ) ;
#123 = CC_DESIGN_DATE_AND_TIME_ASSIGNMENT ( #232, #235, ( #20 ) ) ;
#124 = LINE ( 'NONE', #233, #149 ) ;
#125 = CARTESIAN_POINT ( 'NONE',  ( 50.00000000000000000, 50.00000000000000000, 3.000000000000000000 ) ) ;
#126 = APPLICATION_CONTEXT ( 'configuration controlled 3d designs of mechanical parts and assemblies' ) ;
#127 = CARTESIAN_POINT ( 'NONE',  ( 50.00000000000000000, 0.0000000000000000000, 3.000000000000000000 ) ) ;
#128 = CARTESIAN_POINT ( 'NONE',  ( 0.0000000000000000000, 50.00000000000000000, 3.000000000000000000 ) ) ;
#129 = CC_DESIGN_PERSON_AND_ORGANIZATION_ASSIGNMENT ( #48, #35, ( #135 ) ) ;
#130 = LINE ( 'NONE', #223, #183 ) ;
#131 = PERSON_AND_ORGANIZATION ( #222, #42 ) ;
#132 = VECTOR ( 'NONE', #207, 1000.000000000000000 ) ;
#133 = ORIENTED_EDGE ( 'NONE', *, *, #25, .T. ) ;
#134 = APPROVAL_PERSON_ORGANIZATION ( #83, #230, #142 ) ;
#135 = PRODUCT_DEFINITION_FORMATION_WITH_SPECIFIED_SOURCE ( 'ANY', '', #122, .NOT_KNOWN. ) ;
#136 = VERTEX_POINT ( 'NONE', #138 ) ;
#137 = SHAPE_DEFINITION_REPRESENTATION ( #45, #24 ) ;
#138 = CARTESIAN_POINT ( 'NONE',  ( 0.0000000000000000000, 0.0000000000000000000, 0.0000000000000000000 ) ) ;
#139 =( NAMED_UNIT ( * ) SI_UNIT ( $, .STERADIAN. ) SOLID_ANGLE_UNIT ( ) );
#140 = APPROVAL_ROLE ( '' ) ;
#141 = PLANE ( 'NONE',  #205 ) ;
#142 = APPROVAL_ROLE ( '' ) ;
#143 = VECTOR ( 'NONE', #178, 1000.000000000000000 ) ;
#144 = AXIS2_PLACEMENT_3D ( 'NONE', #161, #85, #106 ) ;
#145 = EDGE_LOOP ( 'NONE', ( #158, #21, #96, #56 ) ) ;
#146 = DIRECTION ( 'NONE',  ( 0.0000000000000000000, 0.0000000000000000000, 1.000000000000000000 ) ) ;
#147 = EDGE_CURVE ( 'NONE', #14, #52, #124, .T. ) ;
#148 = COORDINATED_UNIVERSAL_TIME_OFFSET ( 5, 0, .BEHIND. ) ;
#149 = VECTOR ( 'NONE', #234, 1000.000000000000000 ) ;
#150 = APPROVAL ( #64, 'UNSPECIFIED' ) ;
#151 = ORIENTED_EDGE ( 'NONE', *, *, #90, .T. ) ;
#152 = CARTESIAN_POINT ( 'NONE',  ( 50.00000000000000000, 50.00000000000000000, 3.000000000000000000 ) ) ;
#153 = LOCAL_TIME ( 10, 18, 42.00000000000000000, #37 ) ;
#154 = CC_DESIGN_PERSON_AND_ORGANIZATION_ASSIGNMENT ( #9, #218, ( #135 ) ) ;
#155 = EDGE_CURVE ( 'NONE', #23, #112, #30, .T. ) ;
#156 = ORIENTED_EDGE ( 'NONE', *, *, #90, .F. ) ;
#157 = DIRECTION ( 'NONE',  ( 0.0000000000000000000, -0.0000000000000000000, 1.000000000000000000 ) ) ;
#158 = ORIENTED_EDGE ( 'NONE', *, *, #79, .T. ) ;
#159 = APPROVAL_STATUS ( 'not_yet_approved' ) ;
#160 = ORIENTED_EDGE ( 'NONE', *, *, #147, .T. ) ;
#161 = CARTESIAN_POINT ( 'NONE',  ( 0.0000000000000000000, 50.00000000000000000, 0.0000000000000000000 ) ) ;
#162 = DIRECTION ( 'NONE',  ( 1.000000000000000000, 0.0000000000000000000, 0.0000000000000000000 ) ) ;
#163 = EDGE_CURVE ( 'NONE', #68, #231, #89, .T. ) ;
#164 = DIRECTION ( 'NONE',  ( 1.000000000000000000, 0.0000000000000000000, 0.0000000000000000000 ) ) ;
#165 = EDGE_CURVE ( 'NONE', #112, #136, #10, .T. ) ;
#166 = APPROVAL_DATE_TIME ( #55, #230 ) ;
#167 = ORIENTED_EDGE ( 'NONE', *, *, #147, .F. ) ;
#168 = VECTOR ( 'NONE', #199, 1000.000000000000000 ) ;
#169 = PRODUCT_RELATED_PRODUCT_CATEGORY ( 'detail', '', ( #122 ) ) ;
#170 = EDGE_CURVE ( 'NONE', #40, #68, #206, .T. ) ;
#171 = DATE_AND_TIME ( #229, #153 ) ;
#172 = ADVANCED_FACE ( 'NONE', ( #88 ), #141, .F. ) ;
#173 =( NAMED_UNIT ( * ) PLANE_ANGLE_UNIT ( ) SI_UNIT ( $, .RADIAN. ) );
#174 =( LENGTH_UNIT ( ) NAMED_UNIT ( * ) SI_UNIT ( .MILLI., .METRE. ) );
#175 = PERSON_AND_ORGANIZATION_ROLE ( 'creator' ) ;
#176 = FACE_OUTER_BOUND ( 'NONE', #117, .T. ) ;
#177 = LOCAL_TIME ( 10, 18, 42.00000000000000000, #148 ) ;
#178 = DIRECTION ( 'NONE',  ( -0.0000000000000000000, -0.0000000000000000000, -1.000000000000000000 ) ) ;
#179 = ORIENTED_EDGE ( 'NONE', *, *, #28, .T. ) ;
#180 = DIRECTION ( 'NONE',  ( 1.000000000000000000, 0.0000000000000000000, 0.0000000000000000000 ) ) ;
#181 = ORIENTED_EDGE ( 'NONE', *, *, #155, .T. ) ;
#182 = CARTESIAN_POINT ( 'NONE',  ( 50.00000000000000000, 50.00000000000000000, 0.0000000000000000000 ) ) ;
#183 = VECTOR ( 'NONE', #180, 1000.000000000000000 ) ;
#184 = COORDINATED_UNIVERSAL_TIME_OFFSET ( 5, 0, .BEHIND. ) ;
#185 = EDGE_CURVE ( 'NONE', #40, #136, #27, .T. ) ;
#186 = AXIS2_PLACEMENT_3D ( 'NONE', #116, #74, #162 ) ;
#187 = EDGE_LOOP ( 'NONE', ( #46, #26, #91, #201 ) ) ;
#188 = FACE_OUTER_BOUND ( 'NONE', #92, .T. ) ;
#189 = CALENDAR_DATE ( 2017, 31, 1 ) ;
#190 = SECURITY_CLASSIFICATION ( '', '', #216 ) ;
#191 = PLANE ( 'NONE',  #84 ) ;
#192 = EDGE_LOOP ( 'NONE', ( #151, #107, #31, #179 ) ) ;
#193 = CARTESIAN_POINT ( 'NONE',  ( 0.0000000000000000000, 50.00000000000000000, 0.0000000000000000000 ) ) ;
#194 = ADVANCED_FACE ( 'NONE', ( #176 ), #191, .F. ) ;
#195 = LINE ( 'NONE', #127, #143 ) ;
#196 = PERSON_AND_ORGANIZATION ( #222, #42 ) ;
#197 = APPROVAL_ROLE ( '' ) ;
#198 = AXIS2_PLACEMENT_3D ( 'NONE', #80, #217, #157 ) ;
#199 = DIRECTION ( 'NONE',  ( -1.000000000000000000, -0.0000000000000000000, -0.0000000000000000000 ) ) ;
#200 = CARTESIAN_POINT ( 'NONE',  ( 0.0000000000000000000, 50.00000000000000000, 0.0000000000000000000 ) ) ;
#201 = ORIENTED_EDGE ( 'NONE', *, *, #212, .T. ) ;
#202 = DIRECTION ( 'NONE',  ( -1.000000000000000000, 0.0000000000000000000, -0.0000000000000000000 ) ) ;
#203 = UNCERTAINTY_MEASURE_WITH_UNIT (LENGTH_MEASURE( 1.000000000000000100E-005 ), #174, 'distance_accuracy_value', 'NONE');
#204 = LOCAL_TIME ( 10, 18, 42.00000000000000000, #184 ) ;
#205 = AXIS2_PLACEMENT_3D ( 'NONE', #34, #226, #202 ) ;
#206 = LINE ( 'NONE', #214, #114 ) ;
#207 = DIRECTION ( 'NONE',  ( 0.0000000000000000000, 1.000000000000000000, 0.0000000000000000000 ) ) ;
#208 = CC_DESIGN_PERSON_AND_ORGANIZATION_ASSIGNMENT ( #121, #78, ( #122 ) ) ;
#209 = ORIENTED_EDGE ( 'NONE', *, *, #165, .T. ) ;
#210 = DIRECTION ( 'NONE',  ( -0.0000000000000000000, -1.000000000000000000, -0.0000000000000000000 ) ) ;
#211 = CARTESIAN_POINT ( 'NONE',  ( 0.0000000000000000000, 0.0000000000000000000, 3.000000000000000000 ) ) ;
#212 = EDGE_CURVE ( 'NONE', #231, #23, #119, .T. ) ;
#213 = CC_DESIGN_SECURITY_CLASSIFICATION ( #190, ( #135 ) ) ;
#214 = CARTESIAN_POINT ( 'NONE',  ( 0.0000000000000000000, 0.0000000000000000000, 3.000000000000000000 ) ) ;
#215 = APPLICATION_PROTOCOL_DEFINITION ( 'international standard', 'config_control_design', 1994, #126 ) ;
#216 = SECURITY_CLASSIFICATION_LEVEL ( 'unclassified' ) ;
#217 = DIRECTION ( 'NONE',  ( 0.0000000000000000000, 1.000000000000000000, 0.0000000000000000000 ) ) ;
#218 = PERSON_AND_ORGANIZATION_ROLE ( 'design_supplier' ) ;
#219 = AXIS2_PLACEMENT_3D ( 'NONE', #3, #22, #227 ) ;
#220 = VECTOR ( 'NONE', #63, 1000.000000000000000 ) ;
#221 = APPROVAL_DATE_TIME ( #47, #150 ) ;
#222 = PERSON ( 'UNSPECIFIED', 'UNSPECIFIED', 'UNSPECIFIED', ('UNSPECIFIED'), ('UNSPECIFIED'), ('UNSPECIFIED') ) ;
#223 = CARTESIAN_POINT ( 'NONE',  ( 0.0000000000000000000, 0.0000000000000000000, 0.0000000000000000000 ) ) ;
#224 = ORIENTED_EDGE ( 'NONE', *, *, #79, .F. ) ;
#225 = CARTESIAN_POINT ( 'NONE',  ( 50.00000000000000000, 0.0000000000000000000, 3.000000000000000000 ) ) ;
#226 = DIRECTION ( 'NONE',  ( 0.0000000000000000000, 0.0000000000000000000, -1.000000000000000000 ) ) ;
#227 = DIRECTION ( 'NONE',  ( 0.0000000000000000000, -0.0000000000000000000, -1.000000000000000000 ) ) ;
#228 = CC_DESIGN_DATE_AND_TIME_ASSIGNMENT ( #171, #120, ( #190 ) ) ;
#229 = CALENDAR_DATE ( 2017, 31, 1 ) ;
#230 = APPROVAL ( #159, 'UNSPECIFIED' ) ;
#231 = VERTEX_POINT ( 'NONE', #152 ) ;
#232 = DATE_AND_TIME ( #189, #115 ) ;
#233 = CARTESIAN_POINT ( 'NONE',  ( 50.00000000000000000, 0.0000000000000000000, 0.0000000000000000000 ) ) ;
#234 = DIRECTION ( 'NONE',  ( 0.0000000000000000000, 1.000000000000000000, 0.0000000000000000000 ) ) ;
#235 = DATE_TIME_ROLE ( 'creation_date' ) ;
#236 = PERSON_AND_ORGANIZATION ( #222, #42 ) ;
#237 = PERSON_AND_ORGANIZATION_ROLE ( 'classification_officer' ) ;
ENDSEC;
END-ISO-10303-21;
