ISO-10303-21;
HEADER;
FILE_DESCRIPTION (( 'STEP AP203' ),
    '1' );
FILE_NAME ('TTN047612-E0W.STEP',
    '2019-05-30T15:05:20',
    ( '' ),
    ( '' ),
    'SwSTEP 2.0',
    'SolidWorks 2018',
    '' );
FILE_SCHEMA (( 'CONFIG_CONTROL_DESIGN' ));
ENDSEC;

DATA;
#1 = FACE_OUTER_BOUND ( 'NONE', #214, .T. ) ;
#2 = DIRECTION ( 'NONE',  ( 1.000000000000000000, 1.224646799147353207E-16, 3.749275628560213616E-32 ) ) ;
#3 = DIRECTION ( 'NONE',  ( 0.0000000000000000000, -0.7071067811864346631, 0.7071067811866603714 ) ) ;
#4 = AXIS2_PLACEMENT_3D ( 'NONE', #143, #75, #165 ) ;
#5 = ORIENTED_EDGE ( 'NONE', *, *, #262, .F. ) ;
#6 = CARTESIAN_POINT ( 'NONE',  ( 1.555301434917136658E-15, -12.69999999999996909, -0.8549999999979351895 ) ) ;
#7 = DIRECTION ( 'NONE',  ( 8.659560562355632972E-17, -0.7071067811866621478, -0.7071067811864328867 ) ) ;
#8 = CALENDAR_DATE ( 2019, 30, 5 ) ;
#9 = CARTESIAN_POINT ( 'NONE',  ( 0.0000000000000000000, 8.563133405484201079E-14, -700.2760000000000673 ) ) ;
#10 =( LENGTH_UNIT ( ) NAMED_UNIT ( * ) SI_UNIT ( .MILLI., .METRE. ) );
#11 = CIRCLE ( 'NONE', #281, 12.69999999999985185 ) ;
#12 = APPROVAL_ROLE ( '' ) ;
#13 = EDGE_CURVE ( 'NONE', #114, #67, #105, .T. ) ;
#14 = CARTESIAN_POINT ( 'NONE',  ( 0.0000000000000000000, 0.0000000000000000000, 0.0000000000000000000 ) ) ;
#15 = CC_DESIGN_SECURITY_CLASSIFICATION ( #289, ( #173 ) ) ;
#16 = APPROVAL_DATE_TIME ( #209, #78 ) ;
#17 = APPROVAL_PERSON_ORGANIZATION ( #296, #50, #12 ) ;
#18 = PRODUCT_DEFINITION ( 'UNKNOWN', '', #173, #185 ) ;
#19 = CC_DESIGN_APPROVAL ( #78, ( #289 ) ) ;
#20 = EDGE_CURVE ( 'NONE', #114, #120, #206, .T. ) ;
#21 = ORIENTED_EDGE ( 'NONE', *, *, #121, .T. ) ;
#22 = ORIENTED_EDGE ( 'NONE', *, *, #189, .F. ) ;
#23 = LINE ( 'NONE', #60, #257 ) ;
#24 = LINE ( 'NONE', #31, #68 ) ;
#25 = CARTESIAN_POINT ( 'NONE',  ( 0.0000000000000000000, 3.918740332231605846E-16, -1.054999999999999938 ) ) ;
#26 = AXIS2_PLACEMENT_3D ( 'NONE', #9, #265, #81 ) ;
#27 = ORIENTED_EDGE ( 'NONE', *, *, #119, .F. ) ;
#28 = ORIENTED_EDGE ( 'NONE', *, *, #20, .F. ) ;
#29 = CARTESIAN_POINT ( 'NONE',  ( 1.555301434917120486E-15, -12.69999999999970619, 0.7435958193146479100 ) ) ;
#30 = ADVANCED_FACE ( 'NONE', ( #270 ), #90, .T. ) ;
#31 = CARTESIAN_POINT ( 'NONE',  ( 0.0000000000000000000, 12.49999999999999822, 0.9435958193125832949 ) ) ;
#32 = PERSON ( 'UNSPECIFIED', 'UNSPECIFIED', 'UNSPECIFIED', ('UNSPECIFIED'), ('UNSPECIFIED'), ('UNSPECIFIED') ) ;
#33 = LOCAL_TIME ( 11, 5, 20.00000000000000000, #158 ) ;
#34 = DIRECTION ( 'NONE',  ( 0.0000000000000000000, 1.000000000000000000, -8.128955186147233175E-14 ) ) ;
#35 = ADVANCED_FACE ( 'NONE', ( #47 ), #219, .T. ) ;
#36 = CARTESIAN_POINT ( 'NONE',  ( 0.0000000000000000000, 1.624636855184176604E-13, 0.9435958193135993710 ) ) ;
#37 = DIRECTION ( 'NONE',  ( -0.0000000000000000000, 3.061515884555943146E-16, -1.000000000000000000 ) ) ;
#38 = FACE_OUTER_BOUND ( 'NONE', #177, .T. ) ;
#39 = DATE_TIME_ROLE ( 'classification_date' ) ;
#40 = PERSON_AND_ORGANIZATION_ROLE ( 'design_owner' ) ;
#41 = VERTEX_POINT ( 'NONE', #188 ) ;
#42 = EDGE_CURVE ( 'NONE', #62, #129, #280, .T. ) ;
#43 = CARTESIAN_POINT ( 'NONE',  ( 0.0000000000000000000, 1.625778298436107546E-14, -0.8549999999989675858 ) ) ;
#44 = ORIENTED_EDGE ( 'NONE', *, *, #13, .F. ) ;
#45 = AXIS2_PLACEMENT_3D ( 'NONE', #73, #102, #231 ) ;
#46 = PERSON_AND_ORGANIZATION ( #32, #144 ) ;
#47 = FACE_OUTER_BOUND ( 'NONE', #123, .T. ) ;
#48 = AXIS2_PLACEMENT_3D ( 'NONE', #133, #240, #264 ) ;
#49 = ORIENTED_EDGE ( 'NONE', *, *, #249, .T. ) ;
#50 = APPROVAL ( #220, 'UNSPECIFIED' ) ;
#51 = PERSON_AND_ORGANIZATION ( #32, #144 ) ;
#52 = DATE_AND_TIME ( #118, #230 ) ;
#53 = CARTESIAN_POINT ( 'NONE',  ( 1.555301434917136658E-15, 12.69999999999999929, -0.8549999999999999822 ) ) ;
#54 = DIRECTION ( 'NONE',  ( 0.0000000000000000000, 1.000000000000000000, 3.073328992872296367E-16 ) ) ;
#55 = EDGE_LOOP ( 'NONE', ( #251, #21, #255, #44 ) ) ;
#56 = CC_DESIGN_PERSON_AND_ORGANIZATION_ASSIGNMENT ( #202, #268, ( #173 ) ) ;
#57 = DIRECTION ( 'NONE',  ( 0.0000000000000000000, 1.000000000000000000, -8.128914208427319307E-14 ) ) ;
#58 = DIRECTION ( 'NONE',  ( 0.0000000000000000000, 1.000000000000000000, 3.061515884555943146E-16 ) ) ;
#59 = PRODUCT_DEFINITION_SHAPE ( 'NONE', 'NONE',  #18 ) ;
#60 = CARTESIAN_POINT ( 'NONE',  ( 1.530808498934171405E-15, -12.49999999999967315, 0.9435958193146154471 ) ) ;
#61 = PLANE ( 'NONE',  #156 ) ;
#62 = VERTEX_POINT ( 'NONE', #236 ) ;
#63 = APPROVAL_STATUS ( 'not_yet_approved' ) ;
#64 = AXIS2_PLACEMENT_3D ( 'NONE', #241, #286, #34 ) ;
#65 = CLOSED_SHELL ( 'NONE', ( #103, #234, #287, #110, #30, #35, #195, #130, #127 ) ) ;
#66 = APPROVAL_PERSON_ORGANIZATION ( #277, #278, #197 ) ;
#67 = VERTEX_POINT ( 'NONE', #260 ) ;
#68 = VECTOR ( 'NONE', #218, 1000.000000000000000 ) ;
#69 = ORIENTED_EDGE ( 'NONE', *, *, #119, .T. ) ;
#70 = CC_DESIGN_PERSON_AND_ORGANIZATION_ASSIGNMENT ( #300, #292, ( #289 ) ) ;
#71 = COORDINATED_UNIVERSAL_TIME_OFFSET ( 5, 0, .BEHIND. ) ;
#72 = DIRECTION ( 'NONE',  ( 0.0000000000000000000, -1.000000000000000000, 8.128955186147233175E-14 ) ) ;
#73 = CARTESIAN_POINT ( 'NONE',  ( 0.0000000000000000000, 3.918740332231605846E-16, -1.054999999999999938 ) ) ;
#74 = CIRCLE ( 'NONE', #235, 12.49999999999999822 ) ;
#75 = DIRECTION ( 'NONE',  ( -0.0000000000000000000, -8.128891492138420445E-14, -1.000000000000000000 ) ) ;
#76 = CARTESIAN_POINT ( 'NONE',  ( 0.0000000000000000000, 1.624636855184176604E-13, 0.9435958193135993710 ) ) ;
#77 = ORIENTED_EDGE ( 'NONE', *, *, #89, .F. ) ;
#78 = APPROVAL ( #63, 'UNSPECIFIED' ) ;
#79 = DIRECTION ( 'NONE',  ( 0.0000000000000000000, 1.000000000000000000, -8.128955186147233175E-14 ) ) ;
#80 = COORDINATED_UNIVERSAL_TIME_OFFSET ( 5, 0, .BEHIND. ) ;
#81 = DIRECTION ( 'NONE',  ( 0.0000000000000000000, 1.000000000000000000, 3.166045774748745548E-16 ) ) ;
#82 = MANIFOLD_SOLID_BREP ( 'TTN047613-1-solid1', #65 ) ;
#83 = PERSON_AND_ORGANIZATION ( #32, #144 ) ;
#84 = CARTESIAN_POINT ( 'NONE',  ( 0.0000000000000000000, 1.625778298436107546E-14, -0.8549999999989675858 ) ) ;
#85 = CC_DESIGN_PERSON_AND_ORGANIZATION_ASSIGNMENT ( #83, #40, ( #284 ) ) ;
#86 = SPHERICAL_SURFACE ( 'NONE', #26, 701.3310000000001310 ) ;
#87 = APPROVAL_ROLE ( '' ) ;
#88 = CC_DESIGN_APPROVAL ( #278, ( #173 ) ) ;
#89 = EDGE_CURVE ( 'NONE', #106, #67, #259, .T. ) ;
#90 = CYLINDRICAL_SURFACE ( 'NONE', #181, 12.69999999999999929 ) ;
#91 = APPLICATION_PROTOCOL_DEFINITION ( 'international standard', 'config_control_design', 1994, #269 ) ;
#92 = EDGE_LOOP ( 'NONE', ( #272, #69, #201, #263 ) ) ;
#93 = AXIS2_PLACEMENT_3D ( 'NONE', #135, #245, #199 ) ;
#94 = CONICAL_SURFACE ( 'NONE', #200, 12.49999999999983658, 0.7853981633975291032 ) ;
#95 = FACE_OUTER_BOUND ( 'NONE', #55, .T. ) ;
#96 = ORIENTED_EDGE ( 'NONE', *, *, #149, .T. ) ;
#97 = AXIS2_PLACEMENT_3D ( 'NONE', #175, #128, #147 ) ;
#98 = ORIENTED_EDGE ( 'NONE', *, *, #228, .F. ) ;
#99 = CC_DESIGN_DATE_AND_TIME_ASSIGNMENT ( #171, #113, ( #18 ) ) ;
#100 = CALENDAR_DATE ( 2019, 30, 5 ) ;
#101 = CARTESIAN_POINT ( 'NONE',  ( 0.0000000000000000000, 12.69999999999999929, -1.054999999999995941 ) ) ;
#102 = DIRECTION ( 'NONE',  ( -0.0000000000000000000, 3.061515884555943146E-16, -1.000000000000000000 ) ) ;
#103 = ADVANCED_FACE ( 'NONE', ( #198 ), #104, .T. ) ;
#104 = SPHERICAL_SURFACE ( 'NONE', #108, 701.3310000000001310 ) ;
#105 = LINE ( 'NONE', #101, #146 ) ;
#106 = VERTEX_POINT ( 'NONE', #282 ) ;
#107 = EDGE_CURVE ( 'NONE', #41, #106, #74, .T. ) ;
#108 = AXIS2_PLACEMENT_3D ( 'NONE', #258, #169, #211 ) ;
#109 = CARTESIAN_POINT ( 'NONE',  ( 1.543054966925645946E-15, -12.49999999999967315, 0.9435958193146154471 ) ) ;
#110 = ADVANCED_FACE ( 'NONE', ( #95 ), #254, .T. ) ;
#111 = DIRECTION ( 'NONE',  ( 0.0000000000000000000, 1.000000000000000000, -8.128955186147317741E-14 ) ) ;
#112 = DIRECTION ( 'NONE',  ( -0.0000000000000000000, -8.128891492138420445E-14, -1.000000000000000000 ) ) ;
#113 = DATE_TIME_ROLE ( 'creation_date' ) ;
#114 = VERTEX_POINT ( 'NONE', #261 ) ;
#115 = EDGE_CURVE ( 'NONE', #193, #67, #246, .T. ) ;
#116 = MECHANICAL_CONTEXT ( 'NONE', #269, 'mechanical' ) ;
#117 = COORDINATED_UNIVERSAL_TIME_OFFSET ( 5, 0, .BEHIND. ) ;
#118 = CALENDAR_DATE ( 2019, 30, 5 ) ;
#119 = EDGE_CURVE ( 'NONE', #120, #114, #11, .T. ) ;
#120 = VERTEX_POINT ( 'NONE', #29 ) ;
#121 = EDGE_CURVE ( 'NONE', #120, #193, #204, .T. ) ;
#122 = CIRCLE ( 'NONE', #93, 12.49999999999983658 ) ;
#123 = EDGE_LOOP ( 'NONE', ( #77, #157, #227, #222 ) ) ;
#124 = DIRECTION ( 'NONE',  ( 8.659560562354254931E-17, 0.7071067811865496822, 0.7071067811865453523 ) ) ;
#125 = CIRCLE ( 'NONE', #97, 701.3310000000001310 ) ;
#126 = AXIS2_PLACEMENT_3D ( 'NONE', #288, #244, #148 ) ;
#127 = ADVANCED_FACE ( 'NONE', ( #191 ), #86, .T. ) ;
#128 = DIRECTION ( 'NONE',  ( -1.000000000000000000, 0.0000000000000000000, 0.0000000000000000000 ) ) ;
#129 = VERTEX_POINT ( 'NONE', #109 ) ;
#130 = ADVANCED_FACE ( 'NONE', ( #166 ), #184, .T. ) ;
#131 = CARTESIAN_POINT ( 'NONE',  ( 0.0000000000000000000, -12.69999999999996909, -0.8549999999979351895 ) ) ;
#132 = APPROVAL_DATE_TIME ( #162, #278 ) ;
#133 = CARTESIAN_POINT ( 'NONE',  ( 0.0000000000000000000, 1.624636855184176604E-13, 0.9435958193135993710 ) ) ;
#134 = COORDINATED_UNIVERSAL_TIME_OFFSET ( 5, 0, .BEHIND. ) ;
#135 = CARTESIAN_POINT ( 'NONE',  ( 0.0000000000000000000, 1.624636855184176604E-13, 0.9435958193135993710 ) ) ;
#136 = CIRCLE ( 'NONE', #140, 12.49999999999983658 ) ;
#137 = APPLICATION_CONTEXT ( 'configuration controlled 3d designs of mechanical parts and assemblies' ) ;
#138 = ORIENTED_EDGE ( 'NONE', *, *, #249, .F. ) ;
#139 = CIRCLE ( 'NONE', #64, 12.69999999999998330 ) ;
#140 = AXIS2_PLACEMENT_3D ( 'NONE', #36, #215, #194 ) ;
#141 = ORIENTED_EDGE ( 'NONE', *, *, #42, .F. ) ;
#142 = CALENDAR_DATE ( 2019, 30, 5 ) ;
#143 = CARTESIAN_POINT ( 'NONE',  ( 0.0000000000000000000, 1.462059025341421448E-13, 0.7435958193136155137 ) ) ;
#144 = ORGANIZATION ( 'UNSPECIFIED', 'UNSPECIFIED', '' ) ;
#145 = VECTOR ( 'NONE', #37, 1000.000000000000000 ) ;
#146 = VECTOR ( 'NONE', #167, 1000.000000000000000 ) ;
#147 = DIRECTION ( 'NONE',  ( 0.0000000000000000000, 0.0000000000000000000, 1.000000000000000000 ) ) ;
#148 = DIRECTION ( 'NONE',  ( 0.0000000000000000000, 1.000000000000000000, -8.128914208427319307E-14 ) ) ;
#149 = EDGE_CURVE ( 'NONE', #67, #193, #139, .T. ) ;
#150 = SHAPE_DEFINITION_REPRESENTATION ( #59, #297 ) ;
#151 = DIRECTION ( 'NONE',  ( -0.0000000000000000000, 3.061515884555943146E-16, -1.000000000000000000 ) ) ;
#152 = APPROVAL_STATUS ( 'not_yet_approved' ) ;
#153 = DIRECTION ( 'NONE',  ( 0.0000000000000000000, -1.000000000000000000, 8.128955186147233175E-14 ) ) ;
#154 = ORIENTED_EDGE ( 'NONE', *, *, #293, .F. ) ;
#155 = SECURITY_CLASSIFICATION_LEVEL ( 'unclassified' ) ;
#156 = AXIS2_PLACEMENT_3D ( 'NONE', #217, #151, #58 ) ;
#157 = ORIENTED_EDGE ( 'NONE', *, *, #107, .F. ) ;
#158 = COORDINATED_UNIVERSAL_TIME_OFFSET ( 5, 0, .BEHIND. ) ;
#159 = VECTOR ( 'NONE', #124, 1000.000000000000000 ) ;
#160 = ORIENTED_EDGE ( 'NONE', *, *, #178, .F. ) ;
#161 = EDGE_CURVE ( 'NONE', #62, #186, #125, .T. ) ;
#162 = DATE_AND_TIME ( #142, #256 ) ;
#163 = AXIS2_PLACEMENT_3D ( 'NONE', #14, #248, #247 ) ;
#164 = APPROVAL_DATE_TIME ( #52, #50 ) ;
#165 = DIRECTION ( 'NONE',  ( 0.0000000000000000000, 1.000000000000000000, -8.128955186147317741E-14 ) ) ;
#166 = FACE_OUTER_BOUND ( 'NONE', #275, .T. ) ;
#167 = DIRECTION ( 'NONE',  ( -0.0000000000000000000, 3.061515884555943146E-16, -1.000000000000000000 ) ) ;
#168 = ORIENTED_EDGE ( 'NONE', *, *, #89, .T. ) ;
#169 = DIRECTION ( 'NONE',  ( 1.000000000000000000, 0.0000000000000000000, -0.0000000000000000000 ) ) ;
#170 = DIRECTION ( 'NONE',  ( -0.0000000000000000000, -8.128891492138420445E-14, -1.000000000000000000 ) ) ;
#171 = DATE_AND_TIME ( #8, #216 ) ;
#172 = CARTESIAN_POINT ( 'NONE',  ( 0.0000000000000000000, 1.462059025341421448E-13, 0.7435958193136155137 ) ) ;
#173 = PRODUCT_DEFINITION_FORMATION_WITH_SPECIFIED_SOURCE ( 'ANY', '', #284, .NOT_KNOWN. ) ;
#174 = DIRECTION ( 'NONE',  ( -0.0000000000000000000, -8.128891492138420445E-14, -1.000000000000000000 ) ) ;
#175 = CARTESIAN_POINT ( 'NONE',  ( 0.0000000000000000000, 8.563133405484201079E-14, -700.2760000000000673 ) ) ;
#176 = PERSON_AND_ORGANIZATION_ROLE ( 'creator' ) ;
#177 = EDGE_LOOP ( 'NONE', ( #233, #49, #28, #22 ) ) ;
#178 = EDGE_CURVE ( 'NONE', #106, #41, #226, .T. ) ;
#179 = PERSON_AND_ORGANIZATION_ROLE ( 'creator' ) ;
#180 = CC_DESIGN_PERSON_AND_ORGANIZATION_ASSIGNMENT ( #51, #176, ( #173 ) ) ;
#181 = AXIS2_PLACEMENT_3D ( 'NONE', #25, #213, #54 ) ;
#182 = ORIENTED_EDGE ( 'NONE', *, *, #228, .T. ) ;
#183 = ORIENTED_EDGE ( 'NONE', *, *, #161, .T. ) ;
#184 = CONICAL_SURFACE ( 'NONE', #48, 12.49999999999983658, 0.7853981633975291032 ) ;
#185 = DESIGN_CONTEXT ( 'detailed design', #137, 'design' ) ;
#186 = VERTEX_POINT ( 'NONE', #192 ) ;
#187 = EDGE_LOOP ( 'NONE', ( #208, #291, #154 ) ) ;
#188 = CARTESIAN_POINT ( 'NONE',  ( 0.0000000000000000000, -12.49999999999999822, -1.054999999997967786 ) ) ;
#189 = EDGE_CURVE ( 'NONE', #186, #114, #24, .T. ) ;
#190 = CARTESIAN_POINT ( 'NONE',  ( 0.0000000000000000000, 8.563133405484201079E-14, -700.2760000000000673 ) ) ;
#191 = FACE_OUTER_BOUND ( 'NONE', #224, .T. ) ;
#192 = CARTESIAN_POINT ( 'NONE',  ( 0.0000000000000000000, 12.49999999999999822, 0.9435958193125832949 ) ) ;
#193 = VERTEX_POINT ( 'NONE', #6 ) ;
#194 = DIRECTION ( 'NONE',  ( 0.0000000000000000000, 1.000000000000000000, -8.128914208427424067E-14 ) ) ;
#195 = ADVANCED_FACE ( 'NONE', ( #1 ), #61, .T. ) ;
#196 = PERSON_AND_ORGANIZATION ( #32, #144 ) ;
#197 = APPROVAL_ROLE ( '' ) ;
#198 = FACE_OUTER_BOUND ( 'NONE', #187, .T. ) ;
#199 = DIRECTION ( 'NONE',  ( 0.0000000000000000000, 1.000000000000000000, -8.128914208427424067E-14 ) ) ;
#200 = AXIS2_PLACEMENT_3D ( 'NONE', #76, #112, #238 ) ;
#201 = ORIENTED_EDGE ( 'NONE', *, *, #13, .T. ) ;
#202 = PERSON_AND_ORGANIZATION ( #32, #144 ) ;
#203 = CONICAL_SURFACE ( 'NONE', #276, 12.69999999999998330, 0.7853981633973700083 ) ;
#204 = LINE ( 'NONE', #266, #145 ) ;
#205 = AXIS2_PLACEMENT_3D ( 'NONE', #299, #210, #72 ) ;
#206 = CIRCLE ( 'NONE', #4, 12.69999999999985185 ) ;
#207 = PRODUCT_RELATED_PRODUCT_CATEGORY ( 'detail', '', ( #284 ) ) ;
#208 = ORIENTED_EDGE ( 'NONE', *, *, #161, .F. ) ;
#209 = DATE_AND_TIME ( #273, #33 ) ;
#210 = DIRECTION ( 'NONE',  ( 0.0000000000000000000, 8.128891492138420445E-14, 1.000000000000000000 ) ) ;
#211 = DIRECTION ( 'NONE',  ( 0.0000000000000000000, 1.000000000000000000, 3.166045774748745548E-16 ) ) ;
#212 = EDGE_LOOP ( 'NONE', ( #160, #168, #96, #5 ) ) ;
#213 = DIRECTION ( 'NONE',  ( -0.0000000000000000000, 3.061515884555943146E-16, -1.000000000000000000 ) ) ;
#214 = EDGE_LOOP ( 'NONE', ( #239, #274 ) ) ;
#215 = DIRECTION ( 'NONE',  ( -0.0000000000000000000, -8.128891492138420445E-14, -1.000000000000000000 ) ) ;
#216 = LOCAL_TIME ( 11, 5, 20.00000000000000000, #71 ) ;
#217 = CARTESIAN_POINT ( 'NONE',  ( 0.0000000000000000000, 3.918740332231611762E-16, -1.055000000000001936 ) ) ;
#218 = DIRECTION ( 'NONE',  ( 0.0000000000000000000, 0.7071067811865471286, -0.7071067811865479058 ) ) ;
#219 = CONICAL_SURFACE ( 'NONE', #205, 12.69999999999998330, 0.7853981633973700083 ) ;
#220 = APPROVAL_STATUS ( 'not_yet_approved' ) ;
#221 = AXIS2_PLACEMENT_3D ( 'NONE', #190, #2, #279 ) ;
#222 = ORIENTED_EDGE ( 'NONE', *, *, #115, .T. ) ;
#223 =( NAMED_UNIT ( * ) SI_UNIT ( $, .STERADIAN. ) SOLID_ANGLE_UNIT ( ) );
#224 = EDGE_LOOP ( 'NONE', ( #141, #183, #98 ) ) ;
#225 = LINE ( 'NONE', #131, #252 ) ;
#226 = CIRCLE ( 'NONE', #126, 12.49999999999999822 ) ;
#227 = ORIENTED_EDGE ( 'NONE', *, *, #262, .T. ) ;
#228 = EDGE_CURVE ( 'NONE', #129, #186, #136, .T. ) ;
#229 = DATE_AND_TIME ( #100, #242 ) ;
#230 = LOCAL_TIME ( 11, 5, 20.00000000000000000, #134 ) ;
#231 = DIRECTION ( 'NONE',  ( 0.0000000000000000000, 1.000000000000000000, 3.073328992872296367E-16 ) ) ;
#232 = DIRECTION ( 'NONE',  ( -0.0000000000000000000, -8.128891492138420445E-14, -1.000000000000000000 ) ) ;
#233 = ORIENTED_EDGE ( 'NONE', *, *, #293, .T. ) ;
#234 = ADVANCED_FACE ( 'NONE', ( #38 ), #94, .T. ) ;
#235 = AXIS2_PLACEMENT_3D ( 'NONE', #237, #232, #57 ) ;
#236 = CARTESIAN_POINT ( 'NONE',  ( 0.0000000000000000000, -8.613812741366779358E-14, 1.055000000000028137 ) ) ;
#237 = CARTESIAN_POINT ( 'NONE',  ( 0.0000000000000000000, 8.291587713906480430E-26, -1.054999999998983862 ) ) ;
#238 = DIRECTION ( 'NONE',  ( 0.0000000000000000000, 1.000000000000000000, -8.128914208427424067E-14 ) ) ;
#239 = ORIENTED_EDGE ( 'NONE', *, *, #107, .T. ) ;
#240 = DIRECTION ( 'NONE',  ( -0.0000000000000000000, -8.128891492138420445E-14, -1.000000000000000000 ) ) ;
#241 = CARTESIAN_POINT ( 'NONE',  ( 0.0000000000000000000, 1.625778298436107546E-14, -0.8549999999989675858 ) ) ;
#242 = LOCAL_TIME ( 11, 5, 20.00000000000000000, #80 ) ;
#243 = CC_DESIGN_DATE_AND_TIME_ASSIGNMENT ( #229, #39, ( #289 ) ) ;
#244 = DIRECTION ( 'NONE',  ( -0.0000000000000000000, -8.128891492138420445E-14, -1.000000000000000000 ) ) ;
#245 = DIRECTION ( 'NONE',  ( -0.0000000000000000000, -8.128891492138420445E-14, -1.000000000000000000 ) ) ;
#246 = CIRCLE ( 'NONE', #253, 12.69999999999998330 ) ;
#247 = DIRECTION ( 'NONE',  ( 1.000000000000000000, 0.0000000000000000000, 0.0000000000000000000 ) ) ;
#248 = DIRECTION ( 'NONE',  ( 0.0000000000000000000, 0.0000000000000000000, 1.000000000000000000 ) ) ;
#249 = EDGE_CURVE ( 'NONE', #129, #120, #23, .T. ) ;
#250 = CC_DESIGN_APPROVAL ( #50, ( #18 ) ) ;
#251 = ORIENTED_EDGE ( 'NONE', *, *, #20, .T. ) ;
#252 = VECTOR ( 'NONE', #3, 1000.000000000000000 ) ;
#253 = AXIS2_PLACEMENT_3D ( 'NONE', #84, #174, #79 ) ;
#254 = CYLINDRICAL_SURFACE ( 'NONE', #45, 12.69999999999999929 ) ;
#255 = ORIENTED_EDGE ( 'NONE', *, *, #149, .F. ) ;
#256 = LOCAL_TIME ( 11, 5, 20.00000000000000000, #117 ) ;
#257 = VECTOR ( 'NONE', #7, 1000.000000000000000 ) ;
#258 = CARTESIAN_POINT ( 'NONE',  ( 0.0000000000000000000, 8.563133405484201079E-14, -700.2760000000000673 ) ) ;
#259 = LINE ( 'NONE', #53, #159 ) ;
#260 = CARTESIAN_POINT ( 'NONE',  ( 0.0000000000000000000, 12.69999999999999929, -0.8549999999999999822 ) ) ;
#261 = CARTESIAN_POINT ( 'NONE',  ( 0.0000000000000000000, 12.69999999999999751, 0.7435958193125831173 ) ) ;
#262 = EDGE_CURVE ( 'NONE', #41, #193, #225, .T. ) ;
#263 = ORIENTED_EDGE ( 'NONE', *, *, #115, .F. ) ;
#264 = DIRECTION ( 'NONE',  ( 0.0000000000000000000, 1.000000000000000000, -8.128914208427424067E-14 ) ) ;
#265 = DIRECTION ( 'NONE',  ( 1.000000000000000000, 0.0000000000000000000, -0.0000000000000000000 ) ) ;
#266 = CARTESIAN_POINT ( 'NONE',  ( 1.555301434917138433E-15, -12.69999999999999929, -1.055000000000003935 ) ) ;
#267 = FACE_OUTER_BOUND ( 'NONE', #212, .T. ) ;
#268 = PERSON_AND_ORGANIZATION_ROLE ( 'design_supplier' ) ;
#269 = APPLICATION_CONTEXT ( 'configuration controlled 3d designs of mechanical parts and assemblies' ) ;
#270 = FACE_OUTER_BOUND ( 'NONE', #92, .T. ) ;
#271 = DIRECTION ( 'NONE',  ( 0.0000000000000000000, 8.128891492138420445E-14, 1.000000000000000000 ) ) ;
#272 = ORIENTED_EDGE ( 'NONE', *, *, #121, .F. ) ;
#273 = CALENDAR_DATE ( 2019, 30, 5 ) ;
#274 = ORIENTED_EDGE ( 'NONE', *, *, #178, .T. ) ;
#275 = EDGE_LOOP ( 'NONE', ( #138, #182, #298, #27 ) ) ;
#276 = AXIS2_PLACEMENT_3D ( 'NONE', #43, #271, #153 ) ;
#277 = PERSON_AND_ORGANIZATION ( #32, #144 ) ;
#278 = APPROVAL ( #152, 'UNSPECIFIED' ) ;
#279 = DIRECTION ( 'NONE',  ( -1.224646799147353207E-16, 1.000000000000000000, 0.0000000000000000000 ) ) ;
#280 = CIRCLE ( 'NONE', #221, 701.3310000000001310 ) ;
#281 = AXIS2_PLACEMENT_3D ( 'NONE', #172, #170, #111 ) ;
#282 = CARTESIAN_POINT ( 'NONE',  ( 1.543054966925664089E-15, 12.49999999999999822, -1.054999999999999938 ) ) ;
#283 = CC_DESIGN_PERSON_AND_ORGANIZATION_ASSIGNMENT ( #196, #179, ( #18 ) ) ;
#284 = PRODUCT ( 'TTN047612-E0W', 'TTN047612-E0W', '', ( #116 ) ) ;
#285 = APPROVAL_PERSON_ORGANIZATION ( #46, #78, #87 ) ;
#286 = DIRECTION ( 'NONE',  ( -0.0000000000000000000, -8.128891492138420445E-14, -1.000000000000000000 ) ) ;
#287 = ADVANCED_FACE ( 'NONE', ( #267 ), #203, .T. ) ;
#288 = CARTESIAN_POINT ( 'NONE',  ( 0.0000000000000000000, 8.291587713906480430E-26, -1.054999999998983862 ) ) ;
#289 = SECURITY_CLASSIFICATION ( '', '', #155 ) ;
#290 =( NAMED_UNIT ( * ) PLANE_ANGLE_UNIT ( ) SI_UNIT ( $, .RADIAN. ) );
#291 = ORIENTED_EDGE ( 'NONE', *, *, #42, .T. ) ;
#292 = PERSON_AND_ORGANIZATION_ROLE ( 'classification_officer' ) ;
#293 = EDGE_CURVE ( 'NONE', #186, #129, #122, .T. ) ;
#294 = APPLICATION_PROTOCOL_DEFINITION ( 'international standard', 'config_control_design', 1994, #137 ) ;
#295 =( GEOMETRIC_REPRESENTATION_CONTEXT ( 3 ) GLOBAL_UNCERTAINTY_ASSIGNED_CONTEXT ( ( #301 ) ) GLOBAL_UNIT_ASSIGNED_CONTEXT ( ( #10, #290, #223 ) ) REPRESENTATION_CONTEXT ( 'NONE', 'WORKASPACE' ) );
#296 = PERSON_AND_ORGANIZATION ( #32, #144 ) ;
#297 = ADVANCED_BREP_SHAPE_REPRESENTATION ( 'TTN047612-E0W', ( #82, #163 ), #295 ) ;
#298 = ORIENTED_EDGE ( 'NONE', *, *, #189, .T. ) ;
#299 = CARTESIAN_POINT ( 'NONE',  ( 0.0000000000000000000, 1.625778298436107546E-14, -0.8549999999989675858 ) ) ;
#300 = PERSON_AND_ORGANIZATION ( #32, #144 ) ;
#301 = UNCERTAINTY_MEASURE_WITH_UNIT (LENGTH_MEASURE( 1.000000000000000082E-05 ), #10, 'distance_accuracy_value', 'NONE');
ENDSEC;
END-ISO-10303-21;
