ISO-10303-21;
HEADER;
FILE_DESCRIPTION (( 'STEP AP203' ),
    '1' );
FILE_NAME ('Web Model 32269_32269.step',
    '2020-01-31T18:52:29',
    ( '' ),
    ( '' ),
    'SwSTEP 2.0',
    'SolidWorks 2018',
    '' );
FILE_SCHEMA (( 'CONFIG_CONTROL_DESIGN' ));
ENDSEC;

DATA;
#1 = DIRECTION ( 'NONE',  ( -1.000000000000000000, -0.0000000000000000000, -0.0000000000000000000 ) ) ;
#2 = APPLICATION_PROTOCOL_DEFINITION ( 'international standard', 'config_control_design', 1994, #9 ) ;
#3 = LINE ( 'NONE', #225, #153 ) ;
#4 = DIRECTION ( 'NONE',  ( 1.000000000000000000, 0.0000000000000000000, 0.0000000000000000000 ) ) ;
#5 = EDGE_CURVE ( 'NONE', #118, #121, #126, .T. ) ;
#6 = APPLICATION_CONTEXT ( 'configuration controlled 3d designs of mechanical parts and assemblies' ) ;
#7 = DIRECTION ( 'NONE',  ( -0.0000000000000000000, -0.0000000000000000000, -1.000000000000000000 ) ) ;
#8 = CALENDAR_DATE ( 2020, 31, 1 ) ;
#9 = APPLICATION_CONTEXT ( 'configuration controlled 3d designs of mechanical parts and assemblies' ) ;
#10 = EDGE_CURVE ( 'NONE', #121, #227, #28, .T. ) ;
#11 = APPROVAL_ROLE ( '' ) ;
#12 = FACE_OUTER_BOUND ( 'NONE', #35, .T. ) ;
#13 = DATE_AND_TIME ( #89, #108 ) ;
#14 = APPROVAL_PERSON_ORGANIZATION ( #64, #173, #11 ) ;
#15 = EDGE_CURVE ( 'NONE', #205, #121, #54, .T. ) ;
#16 = LOCAL_TIME ( 13, 52, 29.00000000000000000, #203 ) ;
#17 = VECTOR ( 'NONE', #4, 1000.000000000000000 ) ;
#18 = DIRECTION ( 'NONE',  ( -0.0000000000000000000, -0.0000000000000000000, -1.000000000000000000 ) ) ;
#19 = ORIENTED_EDGE ( 'NONE', *, *, #5, .F. ) ;
#20 = PERSON_AND_ORGANIZATION ( #136, #84 ) ;
#21 = CARTESIAN_POINT ( 'NONE',  ( -10.00000000000000178, 13.49999999999999822, -0.5000000000000000000 ) ) ;
#22 = PERSON_AND_ORGANIZATION ( #136, #84 ) ;
#23 = DIRECTION ( 'NONE',  ( -1.000000000000000000, -0.0000000000000000000, -0.0000000000000000000 ) ) ;
#24 = LINE ( 'NONE', #209, #221 ) ;
#25 = VERTEX_POINT ( 'NONE', #73 ) ;
#26 = DIRECTION ( 'NONE',  ( -0.0000000000000000000, -0.0000000000000000000, -1.000000000000000000 ) ) ;
#27 = PERSON_AND_ORGANIZATION_ROLE ( 'design_supplier' ) ;
#28 = LINE ( 'NONE', #56, #223 ) ;
#29 =( GEOMETRIC_REPRESENTATION_CONTEXT ( 3 ) GLOBAL_UNCERTAINTY_ASSIGNED_CONTEXT ( ( #231 ) ) GLOBAL_UNIT_ASSIGNED_CONTEXT ( ( #165, #78, #216 ) ) REPRESENTATION_CONTEXT ( 'NONE', 'WORKASPACE' ) );
#30 = PERSON_AND_ORGANIZATION ( #136, #84 ) ;
#31 = VECTOR ( 'NONE', #113, 1000.000000000000000 ) ;
#32 = LOCAL_TIME ( 13, 52, 29.00000000000000000, #122 ) ;
#33 = ORIENTED_EDGE ( 'NONE', *, *, #135, .T. ) ;
#34 = EDGE_CURVE ( 'NONE', #208, #170, #93, .T. ) ;
#35 = EDGE_LOOP ( 'NONE', ( #88, #185, #85, #187 ) ) ;
#36 = CARTESIAN_POINT ( 'NONE',  ( 10.00000000000000178, -13.50000000000000178, 0.5000000000000000000 ) ) ;
#37 = CARTESIAN_POINT ( 'NONE',  ( -9.999999999999998224, -13.50000000000000178, 0.5000000000000000000 ) ) ;
#38 = COORDINATED_UNIVERSAL_TIME_OFFSET ( 5, 0, .BEHIND. ) ;
#39 = PLANE ( 'NONE',  #57 ) ;
#40 = CC_DESIGN_PERSON_AND_ORGANIZATION_ASSIGNMENT ( #20, #214, ( #48 ) ) ;
#41 = PLANE ( 'NONE',  #141 ) ;
#42 = CARTESIAN_POINT ( 'NONE',  ( 0.0000000000000000000, 0.0000000000000000000, 0.0000000000000000000 ) ) ;
#43 = CARTESIAN_POINT ( 'NONE',  ( -9.999999999999998224, -13.50000000000000178, 0.5000000000000000000 ) ) ;
#44 = ADVANCED_BREP_SHAPE_REPRESENTATION ( 'Web Model 32269_32269', ( #124, #151 ), #29 ) ;
#45 = AXIS2_PLACEMENT_3D ( 'NONE', #133, #111, #52 ) ;
#46 = DATE_AND_TIME ( #50, #70 ) ;
#47 = VECTOR ( 'NONE', #1, 1000.000000000000000 ) ;
#48 = PRODUCT ( 'Web Model 32269_32269', 'Web Model 32269_32269', '', ( #120 ) ) ;
#49 = AXIS2_PLACEMENT_3D ( 'NONE', #58, #92, #107 ) ;
#50 = CALENDAR_DATE ( 2020, 31, 1 ) ;
#51 = EDGE_CURVE ( 'NONE', #118, #208, #109, .T. ) ;
#52 = DIRECTION ( 'NONE',  ( 0.0000000000000000000, -0.0000000000000000000, 1.000000000000000000 ) ) ;
#53 = LOCAL_TIME ( 13, 52, 29.00000000000000000, #38 ) ;
#54 = LINE ( 'NONE', #195, #31 ) ;
#55 = ORIENTED_EDGE ( 'NONE', *, *, #86, .F. ) ;
#56 = CARTESIAN_POINT ( 'NONE',  ( 9.999999999999998224, 13.49999999999999822, -0.5000000000000000000 ) ) ;
#57 = AXIS2_PLACEMENT_3D ( 'NONE', #76, #119, #94 ) ;
#58 = CARTESIAN_POINT ( 'NONE',  ( -10.00000000000000178, 13.49999999999999822, 0.5000000000000000000 ) ) ;
#59 = PLANE ( 'NONE',  #148 ) ;
#60 = DIRECTION ( 'NONE',  ( 0.0000000000000000000, -1.000000000000000000, 0.0000000000000000000 ) ) ;
#61 = FACE_OUTER_BOUND ( 'NONE', #190, .T. ) ;
#62 = PLANE ( 'NONE',  #83 ) ;
#63 = CARTESIAN_POINT ( 'NONE',  ( -10.00000000000000178, 13.49999999999999822, 0.5000000000000000000 ) ) ;
#64 = PERSON_AND_ORGANIZATION ( #136, #84 ) ;
#65 = SECURITY_CLASSIFICATION_LEVEL ( 'unclassified' ) ;
#66 = CC_DESIGN_PERSON_AND_ORGANIZATION_ASSIGNMENT ( #30, #226, ( #236 ) ) ;
#67 = APPROVAL_DATE_TIME ( #77, #125 ) ;
#68 = EDGE_LOOP ( 'NONE', ( #230, #150, #87, #193 ) ) ;
#69 = ADVANCED_FACE ( 'NONE', ( #130 ), #158, .F. ) ;
#70 = LOCAL_TIME ( 13, 52, 29.00000000000000000, #100 ) ;
#71 = LINE ( 'NONE', #43, #17 ) ;
#72 = ADVANCED_FACE ( 'NONE', ( #123 ), #132, .F. ) ;
#73 = CARTESIAN_POINT ( 'NONE',  ( -10.00000000000000178, 13.49999999999999822, -0.5000000000000000000 ) ) ;
#74 = DIRECTION ( 'NONE',  ( -1.284980352575412699E-16, 1.000000000000000000, -0.0000000000000000000 ) ) ;
#75 = CC_DESIGN_SECURITY_CLASSIFICATION ( #202, ( #117 ) ) ;
#76 = CARTESIAN_POINT ( 'NONE',  ( 0.0000000000000000000, 0.0000000000000000000, 0.5000000000000000000 ) ) ;
#77 = DATE_AND_TIME ( #129, #32 ) ;
#78 =( NAMED_UNIT ( * ) PLANE_ANGLE_UNIT ( ) SI_UNIT ( $, .RADIAN. ) );
#79 = EDGE_CURVE ( 'NONE', #170, #25, #3, .T. ) ;
#80 = DIRECTION ( 'NONE',  ( 1.000000000000000000, 0.0000000000000000000, 0.0000000000000000000 ) ) ;
#81 = CARTESIAN_POINT ( 'NONE',  ( 9.999999999999998224, 13.49999999999999822, -0.5000000000000000000 ) ) ;
#82 = APPROVAL_STATUS ( 'not_yet_approved' ) ;
#83 = AXIS2_PLACEMENT_3D ( 'NONE', #182, #138, #229 ) ;
#84 = ORGANIZATION ( 'UNSPECIFIED', 'UNSPECIFIED', '' ) ;
#85 = ORIENTED_EDGE ( 'NONE', *, *, #86, .T. ) ;
#86 = EDGE_CURVE ( 'NONE', #170, #90, #147, .T. ) ;
#87 = ORIENTED_EDGE ( 'NONE', *, *, #51, .F. ) ;
#88 = ORIENTED_EDGE ( 'NONE', *, *, #51, .T. ) ;
#89 = CALENDAR_DATE ( 2020, 31, 1 ) ;
#90 = VERTEX_POINT ( 'NONE', #37 ) ;
#91 = EDGE_CURVE ( 'NONE', #90, #205, #24, .T. ) ;
#92 = DIRECTION ( 'NONE',  ( 1.000000000000000000, 1.284980352575412946E-16, -0.0000000000000000000 ) ) ;
#93 = LINE ( 'NONE', #115, #47 ) ;
#94 = DIRECTION ( 'NONE',  ( 1.000000000000000000, 0.0000000000000000000, 0.0000000000000000000 ) ) ;
#95 = DIRECTION ( 'NONE',  ( 0.0000000000000000000, 0.0000000000000000000, 1.000000000000000000 ) ) ;
#96 = SHAPE_DEFINITION_REPRESENTATION ( #234, #44 ) ;
#97 = CARTESIAN_POINT ( 'NONE',  ( -10.00000000000000178, 13.49999999999999822, 0.5000000000000000000 ) ) ;
#98 = ORIENTED_EDGE ( 'NONE', *, *, #217, .F. ) ;
#99 = EDGE_CURVE ( 'NONE', #90, #118, #71, .T. ) ;
#100 = COORDINATED_UNIVERSAL_TIME_OFFSET ( 5, 0, .BEHIND. ) ;
#101 = EDGE_LOOP ( 'NONE', ( #33, #104, #134, #157 ) ) ;
#102 = APPROVAL_ROLE ( '' ) ;
#103 = PERSON_AND_ORGANIZATION ( #136, #84 ) ;
#104 = ORIENTED_EDGE ( 'NONE', *, *, #79, .F. ) ;
#105 = ORIENTED_EDGE ( 'NONE', *, *, #135, .F. ) ;
#106 = FACE_OUTER_BOUND ( 'NONE', #101, .T. ) ;
#107 = DIRECTION ( 'NONE',  ( -1.284980352575412946E-16, 1.000000000000000000, 0.0000000000000000000 ) ) ;
#108 = LOCAL_TIME ( 13, 52, 29.00000000000000000, #210 ) ;
#109 = LINE ( 'NONE', #175, #139 ) ;
#110 = ORIENTED_EDGE ( 'NONE', *, *, #91, .F. ) ;
#111 = DIRECTION ( 'NONE',  ( 0.0000000000000000000, 1.000000000000000000, 0.0000000000000000000 ) ) ;
#112 = CARTESIAN_POINT ( 'NONE',  ( -10.00000000000000178, 13.49999999999999822, 0.5000000000000000000 ) ) ;
#113 = DIRECTION ( 'NONE',  ( 1.000000000000000000, 0.0000000000000000000, 0.0000000000000000000 ) ) ;
#114 = VECTOR ( 'NONE', #23, 1000.000000000000000 ) ;
#115 = CARTESIAN_POINT ( 'NONE',  ( -10.00000000000000178, 13.49999999999999822, 0.5000000000000000000 ) ) ;
#116 = DIRECTION ( 'NONE',  ( 1.000000000000000000, 0.0000000000000000000, 0.0000000000000000000 ) ) ;
#117 = PRODUCT_DEFINITION_FORMATION_WITH_SPECIFIED_SOURCE ( 'ANY', '', #48, .NOT_KNOWN. ) ;
#118 = VERTEX_POINT ( 'NONE', #184 ) ;
#119 = DIRECTION ( 'NONE',  ( -0.0000000000000000000, 0.0000000000000000000, 1.000000000000000000 ) ) ;
#120 = MECHANICAL_CONTEXT ( 'NONE', #6, 'mechanical' ) ;
#121 = VERTEX_POINT ( 'NONE', #178 ) ;
#122 = COORDINATED_UNIVERSAL_TIME_OFFSET ( 5, 0, .BEHIND. ) ;
#123 = FACE_OUTER_BOUND ( 'NONE', #149, .T. ) ;
#124 = MANIFOLD_SOLID_BREP ( 'Boss-Extrude1', #237 ) ;
#125 = APPROVAL ( #162, 'UNSPECIFIED' ) ;
#126 = LINE ( 'NONE', #36, #166 ) ;
#127 = EDGE_LOOP ( 'NONE', ( #142, #19, #176, #194 ) ) ;
#128 = ADVANCED_FACE ( 'NONE', ( #61 ), #59, .F. ) ;
#129 = CALENDAR_DATE ( 2020, 31, 1 ) ;
#130 = FACE_OUTER_BOUND ( 'NONE', #127, .T. ) ;
#131 = DIRECTION ( 'NONE',  ( 1.284980352575412699E-16, -1.000000000000000000, 0.0000000000000000000 ) ) ;
#132 = PLANE ( 'NONE',  #49 ) ;
#133 = CARTESIAN_POINT ( 'NONE',  ( -9.999999999999998224, -13.50000000000000178, 0.5000000000000000000 ) ) ;
#134 = ORIENTED_EDGE ( 'NONE', *, *, #34, .F. ) ;
#135 = EDGE_CURVE ( 'NONE', #227, #25, #152, .T. ) ;
#136 = PERSON ( 'UNSPECIFIED', 'UNSPECIFIED', 'UNSPECIFIED', ('UNSPECIFIED'), ('UNSPECIFIED'), ('UNSPECIFIED') ) ;
#137 = CARTESIAN_POINT ( 'NONE',  ( -9.999999999999998224, -13.50000000000000178, -0.5000000000000000000 ) ) ;
#138 = DIRECTION ( 'NONE',  ( -1.000000000000000000, -1.284980352575412946E-16, 0.0000000000000000000 ) ) ;
#139 = VECTOR ( 'NONE', #74, 1000.000000000000000 ) ;
#140 = DIRECTION ( 'NONE',  ( 0.0000000000000000000, -0.0000000000000000000, -1.000000000000000000 ) ) ;
#141 = AXIS2_PLACEMENT_3D ( 'NONE', #97, #60, #140 ) ;
#142 = ORIENTED_EDGE ( 'NONE', *, *, #15, .T. ) ;
#143 = APPROVAL_STATUS ( 'not_yet_approved' ) ;
#144 = DATE_TIME_ROLE ( 'creation_date' ) ;
#145 = PERSON_AND_ORGANIZATION_ROLE ( 'creator' ) ;
#146 = PERSON_AND_ORGANIZATION ( #136, #84 ) ;
#147 = LINE ( 'NONE', #112, #180 ) ;
#148 = AXIS2_PLACEMENT_3D ( 'NONE', #183, #200, #116 ) ;
#149 = EDGE_LOOP ( 'NONE', ( #171, #110, #55, #161 ) ) ;
#150 = ORIENTED_EDGE ( 'NONE', *, *, #228, .F. ) ;
#151 = AXIS2_PLACEMENT_3D ( 'NONE', #42, #95, #80 ) ;
#152 = LINE ( 'NONE', #21, #114 ) ;
#153 = VECTOR ( 'NONE', #159, 1000.000000000000000 ) ;
#154 = ADVANCED_FACE ( 'NONE', ( #12 ), #39, .T. ) ;
#155 = APPROVAL ( #143, 'UNSPECIFIED' ) ;
#156 = APPROVAL_DATE_TIME ( #204, #155 ) ;
#157 = ORIENTED_EDGE ( 'NONE', *, *, #228, .T. ) ;
#158 = PLANE ( 'NONE',  #45 ) ;
#159 = DIRECTION ( 'NONE',  ( -0.0000000000000000000, -0.0000000000000000000, -1.000000000000000000 ) ) ;
#160 = FACE_OUTER_BOUND ( 'NONE', #68, .T. ) ;
#161 = ORIENTED_EDGE ( 'NONE', *, *, #79, .T. ) ;
#162 = APPROVAL_STATUS ( 'not_yet_approved' ) ;
#163 = CARTESIAN_POINT ( 'NONE',  ( 9.999999999999998224, 13.49999999999999822, 0.5000000000000000000 ) ) ;
#164 = APPROVAL_PERSON_ORGANIZATION ( #207, #155, #102 ) ;
#165 =( LENGTH_UNIT ( ) NAMED_UNIT ( * ) SI_UNIT ( .MILLI., .METRE. ) );
#166 = VECTOR ( 'NONE', #18, 1000.000000000000000 ) ;
#167 = CC_DESIGN_APPROVAL ( #125, ( #236 ) ) ;
#168 = LINE ( 'NONE', #198, #186 ) ;
#169 = PERSON_AND_ORGANIZATION ( #136, #84 ) ;
#170 = VERTEX_POINT ( 'NONE', #63 ) ;
#171 = ORIENTED_EDGE ( 'NONE', *, *, #217, .T. ) ;
#172 = DATE_AND_TIME ( #212, #16 ) ;
#173 = APPROVAL ( #82, 'UNSPECIFIED' ) ;
#174 = DIRECTION ( 'NONE',  ( -1.284980352575412699E-16, 1.000000000000000000, -0.0000000000000000000 ) ) ;
#175 = CARTESIAN_POINT ( 'NONE',  ( 9.999999999999998224, 13.49999999999999822, 0.5000000000000000000 ) ) ;
#176 = ORIENTED_EDGE ( 'NONE', *, *, #99, .F. ) ;
#177 = CC_DESIGN_DATE_AND_TIME_ASSIGNMENT ( #46, #144, ( #236 ) ) ;
#178 = CARTESIAN_POINT ( 'NONE',  ( 10.00000000000000178, -13.50000000000000178, -0.5000000000000000000 ) ) ;
#179 = CARTESIAN_POINT ( 'NONE',  ( 9.999999999999998224, 13.49999999999999822, 0.5000000000000000000 ) ) ;
#180 = VECTOR ( 'NONE', #131, 1000.000000000000000 ) ;
#181 = ORIENTED_EDGE ( 'NONE', *, *, #10, .F. ) ;
#182 = CARTESIAN_POINT ( 'NONE',  ( 9.999999999999998224, 13.49999999999999822, 0.5000000000000000000 ) ) ;
#183 = CARTESIAN_POINT ( 'NONE',  ( 0.0000000000000000000, 0.0000000000000000000, -0.5000000000000000000 ) ) ;
#184 = CARTESIAN_POINT ( 'NONE',  ( 10.00000000000000178, -13.50000000000000178, 0.5000000000000000000 ) ) ;
#185 = ORIENTED_EDGE ( 'NONE', *, *, #34, .T. ) ;
#186 = VECTOR ( 'NONE', #201, 1000.000000000000000 ) ;
#187 = ORIENTED_EDGE ( 'NONE', *, *, #99, .T. ) ;
#188 = CC_DESIGN_APPROVAL ( #173, ( #117 ) ) ;
#189 = CC_DESIGN_APPROVAL ( #155, ( #202 ) ) ;
#190 = EDGE_LOOP ( 'NONE', ( #181, #191, #98, #105 ) ) ;
#191 = ORIENTED_EDGE ( 'NONE', *, *, #15, .F. ) ;
#192 = CC_DESIGN_PERSON_AND_ORGANIZATION_ASSIGNMENT ( #169, #145, ( #117 ) ) ;
#193 = ORIENTED_EDGE ( 'NONE', *, *, #5, .T. ) ;
#194 = ORIENTED_EDGE ( 'NONE', *, *, #91, .T. ) ;
#195 = CARTESIAN_POINT ( 'NONE',  ( -9.999999999999998224, -13.50000000000000178, -0.5000000000000000000 ) ) ;
#196 = APPROVAL_DATE_TIME ( #172, #173 ) ;
#197 = APPROVAL_ROLE ( '' ) ;
#198 = CARTESIAN_POINT ( 'NONE',  ( -10.00000000000000178, 13.49999999999999822, -0.5000000000000000000 ) ) ;
#199 = CC_DESIGN_PERSON_AND_ORGANIZATION_ASSIGNMENT ( #146, #27, ( #117 ) ) ;
#200 = DIRECTION ( 'NONE',  ( -0.0000000000000000000, 0.0000000000000000000, 1.000000000000000000 ) ) ;
#201 = DIRECTION ( 'NONE',  ( 1.284980352575412699E-16, -1.000000000000000000, 0.0000000000000000000 ) ) ;
#202 = SECURITY_CLASSIFICATION ( '', '', #65 ) ;
#203 = COORDINATED_UNIVERSAL_TIME_OFFSET ( 5, 0, .BEHIND. ) ;
#204 = DATE_AND_TIME ( #8, #53 ) ;
#205 = VERTEX_POINT ( 'NONE', #137 ) ;
#206 = CC_DESIGN_PERSON_AND_ORGANIZATION_ASSIGNMENT ( #103, #218, ( #202 ) ) ;
#207 = PERSON_AND_ORGANIZATION ( #136, #84 ) ;
#208 = VERTEX_POINT ( 'NONE', #163 ) ;
#209 = CARTESIAN_POINT ( 'NONE',  ( -9.999999999999998224, -13.50000000000000178, 0.5000000000000000000 ) ) ;
#210 = COORDINATED_UNIVERSAL_TIME_OFFSET ( 5, 0, .BEHIND. ) ;
#211 = CC_DESIGN_DATE_AND_TIME_ASSIGNMENT ( #13, #232, ( #202 ) ) ;
#212 = CALENDAR_DATE ( 2020, 31, 1 ) ;
#213 = APPLICATION_PROTOCOL_DEFINITION ( 'international standard', 'config_control_design', 1994, #6 ) ;
#214 = PERSON_AND_ORGANIZATION_ROLE ( 'design_owner' ) ;
#215 = DESIGN_CONTEXT ( 'detailed design', #9, 'design' ) ;
#216 =( NAMED_UNIT ( * ) SI_UNIT ( $, .STERADIAN. ) SOLID_ANGLE_UNIT ( ) );
#217 = EDGE_CURVE ( 'NONE', #25, #205, #168, .T. ) ;
#218 = PERSON_AND_ORGANIZATION_ROLE ( 'classification_officer' ) ;
#219 = PRODUCT_RELATED_PRODUCT_CATEGORY ( 'detail', '', ( #48 ) ) ;
#220 = LINE ( 'NONE', #179, #233 ) ;
#221 = VECTOR ( 'NONE', #26, 1000.000000000000000 ) ;
#222 = APPROVAL_PERSON_ORGANIZATION ( #22, #125, #197 ) ;
#223 = VECTOR ( 'NONE', #174, 1000.000000000000000 ) ;
#224 = ADVANCED_FACE ( 'NONE', ( #160 ), #62, .F. ) ;
#225 = CARTESIAN_POINT ( 'NONE',  ( -10.00000000000000178, 13.49999999999999822, 0.5000000000000000000 ) ) ;
#226 = PERSON_AND_ORGANIZATION_ROLE ( 'creator' ) ;
#227 = VERTEX_POINT ( 'NONE', #81 ) ;
#228 = EDGE_CURVE ( 'NONE', #208, #227, #220, .T. ) ;
#229 = DIRECTION ( 'NONE',  ( 1.284980352575412946E-16, -1.000000000000000000, 0.0000000000000000000 ) ) ;
#230 = ORIENTED_EDGE ( 'NONE', *, *, #10, .T. ) ;
#231 = UNCERTAINTY_MEASURE_WITH_UNIT (LENGTH_MEASURE( 1.000000000000000082E-05 ), #165, 'distance_accuracy_value', 'NONE');
#232 = DATE_TIME_ROLE ( 'classification_date' ) ;
#233 = VECTOR ( 'NONE', #7, 1000.000000000000000 ) ;
#234 = PRODUCT_DEFINITION_SHAPE ( 'NONE', 'NONE',  #236 ) ;
#235 = ADVANCED_FACE ( 'NONE', ( #106 ), #41, .F. ) ;
#236 = PRODUCT_DEFINITION ( 'UNKNOWN', '', #117, #215 ) ;
#237 = CLOSED_SHELL ( 'NONE', ( #224, #235, #72, #69, #154, #128 ) ) ;
ENDSEC;
END-ISO-10303-21;
