ISO-10303-21;
HEADER;
FILE_DESCRIPTION (( 'STEP AP203' ),
    '1' );
FILE_NAME ('Web Model 46457_15983.step',
    '2020-10-09T14:02:34',
    ( '' ),
    ( '' ),
    'SwSTEP 2.0',
    'SolidWorks 2018',
    '' );
FILE_SCHEMA (( 'CONFIG_CONTROL_DESIGN' ));
ENDSEC;

DATA;
#1 = PERSON_AND_ORGANIZATION ( #66, #119 ) ;
#2 = APPROVAL ( #12, 'UNSPECIFIED' ) ;
#3 = ORIENTED_EDGE ( 'NONE', *, *, #112, .T. ) ;
#4 = DIRECTION ( 'NONE',  ( -1.000000000000000000, -0.0000000000000000000, -0.0000000000000000000 ) ) ;
#5 = CARTESIAN_POINT ( 'NONE',  ( 0.7500000000000000000, 0.0000000000000000000, 0.0000000000000000000 ) ) ;
#6 = CARTESIAN_POINT ( 'NONE',  ( 0.7500000000000000000, 0.0000000000000000000, 0.0000000000000000000 ) ) ;
#7 = DATE_AND_TIME ( #86, #106 ) ;
#8 = ORIENTED_EDGE ( 'NONE', *, *, #123, .F. ) ;
#9 = ADVANCED_FACE ( 'NONE', ( #120 ), #141, .T. ) ;
#10 = CARTESIAN_POINT ( 'NONE',  ( -0.7500000000000000000, 0.0000000000000000000, 0.0000000000000000000 ) ) ;
#11 =( LENGTH_UNIT ( ) NAMED_UNIT ( * ) SI_UNIT ( .MILLI., .METRE. ) );
#12 = APPROVAL_STATUS ( 'not_yet_approved' ) ;
#13 = DATE_AND_TIME ( #15, #64 ) ;
#14 =( GEOMETRIC_REPRESENTATION_CONTEXT ( 3 ) GLOBAL_UNCERTAINTY_ASSIGNED_CONTEXT ( ( #114 ) ) GLOBAL_UNIT_ASSIGNED_CONTEXT ( ( #11, #32, #154 ) ) REPRESENTATION_CONTEXT ( 'NONE', 'WORKASPACE' ) );
#15 = CALENDAR_DATE ( 2020, 9, 10 ) ;
#16 = LOCAL_TIME ( 10, 2, 34.00000000000000000, #88 ) ;
#17 = CALENDAR_DATE ( 2020, 9, 10 ) ;
#18 = ADVANCED_BREP_SHAPE_REPRESENTATION ( 'Web Model 46457_15983', ( #132, #102 ), #14 ) ;
#19 = CARTESIAN_POINT ( 'NONE',  ( -0.7500000000000000000, 0.0000000000000000000, 0.0000000000000000000 ) ) ;
#20 = CARTESIAN_POINT ( 'NONE',  ( -0.7500000000000000000, 0.0000000000000000000, 0.0000000000000000000 ) ) ;
#21 = APPLICATION_PROTOCOL_DEFINITION ( 'international standard', 'config_control_design', 1994, #31 ) ;
#22 = DATE_AND_TIME ( #26, #16 ) ;
#23 = APPROVAL_ROLE ( '' ) ;
#24 = APPROVAL_PERSON_ORGANIZATION ( #56, #2, #113 ) ;
#25 = ORIENTED_EDGE ( 'NONE', *, *, #61, .F. ) ;
#26 = CALENDAR_DATE ( 2020, 9, 10 ) ;
#27 = SHAPE_DEFINITION_REPRESENTATION ( #44, #18 ) ;
#28 = DIRECTION ( 'NONE',  ( 0.0000000000000000000, 0.0000000000000000000, -1.000000000000000000 ) ) ;
#29 = LINE ( 'NONE', #105, #71 ) ;
#30 = APPLICATION_PROTOCOL_DEFINITION ( 'international standard', 'config_control_design', 1994, #157 ) ;
#31 = APPLICATION_CONTEXT ( 'configuration controlled 3d designs of mechanical parts and assemblies' ) ;
#32 =( NAMED_UNIT ( * ) PLANE_ANGLE_UNIT ( ) SI_UNIT ( $, .RADIAN. ) );
#33 = COORDINATED_UNIVERSAL_TIME_OFFSET ( 5, 0, .BEHIND. ) ;
#34 = FACE_OUTER_BOUND ( 'NONE', #39, .T. ) ;
#35 = PERSON_AND_ORGANIZATION_ROLE ( 'design_supplier' ) ;
#36 = PRODUCT_RELATED_PRODUCT_CATEGORY ( 'detail', '', ( #75 ) ) ;
#37 = AXIS2_PLACEMENT_3D ( 'NONE', #6, #54, #69 ) ;
#38 = EDGE_CURVE ( 'NONE', #147, #51, #29, .T. ) ;
#39 = EDGE_LOOP ( 'NONE', ( #145, #101 ) ) ;
#40 = PLANE ( 'NONE',  #46 ) ;
#41 = CARTESIAN_POINT ( 'NONE',  ( 0.7500000000000000000, 0.0000000000000000000, 0.0000000000000000000 ) ) ;
#42 = APPROVAL_DATE_TIME ( #7, #135 ) ;
#43 = CARTESIAN_POINT ( 'NONE',  ( 0.7500000000000000000, 7.776507174585692163E-16, -6.349999999999999645 ) ) ;
#44 = PRODUCT_DEFINITION_SHAPE ( 'NONE', 'NONE',  #79 ) ;
#45 = DIRECTION ( 'NONE',  ( 0.0000000000000000000, 0.0000000000000000000, -1.000000000000000000 ) ) ;
#46 = AXIS2_PLACEMENT_3D ( 'NONE', #41, #136, #95 ) ;
#47 = CARTESIAN_POINT ( 'NONE',  ( 0.7500000000000000000, 7.776507174585692163E-16, -6.349999999999999645 ) ) ;
#48 = CC_DESIGN_PERSON_AND_ORGANIZATION_ASSIGNMENT ( #175, #60, ( #118 ) ) ;
#49 = DATE_TIME_ROLE ( 'classification_date' ) ;
#50 = LOCAL_TIME ( 10, 2, 34.00000000000000000, #133 ) ;
#51 = VERTEX_POINT ( 'NONE', #164 ) ;
#52 = PERSON_AND_ORGANIZATION ( #66, #119 ) ;
#53 = LOCAL_TIME ( 10, 2, 34.00000000000000000, #33 ) ;
#54 = DIRECTION ( 'NONE',  ( 1.000000000000000000, 0.0000000000000000000, 0.0000000000000000000 ) ) ;
#55 = ADVANCED_FACE ( 'NONE', ( #89 ), #40, .T. ) ;
#56 = PERSON_AND_ORGANIZATION ( #66, #119 ) ;
#57 = DIRECTION ( 'NONE',  ( 0.0000000000000000000, 0.0000000000000000000, -1.000000000000000000 ) ) ;
#58 = CC_DESIGN_PERSON_AND_ORGANIZATION_ASSIGNMENT ( #165, #82, ( #148 ) ) ;
#59 = ORIENTED_EDGE ( 'NONE', *, *, #61, .T. ) ;
#60 = PERSON_AND_ORGANIZATION_ROLE ( 'creator' ) ;
#61 = EDGE_CURVE ( 'NONE', #147, #125, #159, .T. ) ;
#62 = EDGE_LOOP ( 'NONE', ( #59, #73 ) ) ;
#63 = CIRCLE ( 'NONE', #168, 6.349999999999999645 ) ;
#64 = LOCAL_TIME ( 10, 2, 34.00000000000000000, #76 ) ;
#65 = CIRCLE ( 'NONE', #37, 6.349999999999999645 ) ;
#66 = PERSON ( 'UNSPECIFIED', 'UNSPECIFIED', 'UNSPECIFIED', ('UNSPECIFIED'), ('UNSPECIFIED'), ('UNSPECIFIED') ) ;
#67 = EDGE_LOOP ( 'NONE', ( #8, #74, #104, #85 ) ) ;
#68 = AXIS2_PLACEMENT_3D ( 'NONE', #128, #153, #170 ) ;
#69 = DIRECTION ( 'NONE',  ( 0.0000000000000000000, 0.0000000000000000000, -1.000000000000000000 ) ) ;
#70 = COORDINATED_UNIVERSAL_TIME_OFFSET ( 5, 0, .BEHIND. ) ;
#71 = VECTOR ( 'NONE', #121, 1000.000000000000000 ) ;
#72 = CC_DESIGN_PERSON_AND_ORGANIZATION_ASSIGNMENT ( #122, #130, ( #75 ) ) ;
#73 = ORIENTED_EDGE ( 'NONE', *, *, #123, .T. ) ;
#74 = ORIENTED_EDGE ( 'NONE', *, *, #111, .T. ) ;
#75 = PRODUCT ( 'Web Model 46457_15983', 'Web Model 46457_15983', '', ( #109 ) ) ;
#76 = COORDINATED_UNIVERSAL_TIME_OFFSET ( 5, 0, .BEHIND. ) ;
#77 = DIRECTION ( 'NONE',  ( 1.000000000000000000, 0.0000000000000000000, 0.0000000000000000000 ) ) ;
#78 = CYLINDRICAL_SURFACE ( 'NONE', #68, 6.349999999999999645 ) ;
#79 = PRODUCT_DEFINITION ( 'UNKNOWN', '', #118, #100 ) ;
#80 = CARTESIAN_POINT ( 'NONE',  ( 0.0000000000000000000, 0.0000000000000000000, 0.0000000000000000000 ) ) ;
#81 = DIRECTION ( 'NONE',  ( 1.000000000000000000, 0.0000000000000000000, 0.0000000000000000000 ) ) ;
#82 = PERSON_AND_ORGANIZATION_ROLE ( 'classification_officer' ) ;
#83 = CC_DESIGN_APPROVAL ( #135, ( #148 ) ) ;
#84 = APPROVAL_ROLE ( '' ) ;
#85 = ORIENTED_EDGE ( 'NONE', *, *, #38, .F. ) ;
#86 = CALENDAR_DATE ( 2020, 9, 10 ) ;
#87 = CC_DESIGN_APPROVAL ( #131, ( #118 ) ) ;
#88 = COORDINATED_UNIVERSAL_TIME_OFFSET ( 5, 0, .BEHIND. ) ;
#89 = FACE_OUTER_BOUND ( 'NONE', #62, .T. ) ;
#90 = DIRECTION ( 'NONE',  ( 0.0000000000000000000, 0.0000000000000000000, 1.000000000000000000 ) ) ;
#91 = DIRECTION ( 'NONE',  ( -1.000000000000000000, -0.0000000000000000000, -0.0000000000000000000 ) ) ;
#92 = AXIS2_PLACEMENT_3D ( 'NONE', #10, #77, #28 ) ;
#93 = CALENDAR_DATE ( 2020, 9, 10 ) ;
#94 = DIRECTION ( 'NONE',  ( 0.0000000000000000000, 0.0000000000000000000, 1.000000000000000000 ) ) ;
#95 = DIRECTION ( 'NONE',  ( 0.0000000000000000000, 0.0000000000000000000, -1.000000000000000000 ) ) ;
#96 = CC_DESIGN_APPROVAL ( #2, ( #79 ) ) ;
#97 = ORIENTED_EDGE ( 'NONE', *, *, #38, .T. ) ;
#98 = APPROVAL_PERSON_ORGANIZATION ( #52, #131, #23 ) ;
#99 = LINE ( 'NONE', #43, #139 ) ;
#100 = DESIGN_CONTEXT ( 'detailed design', #157, 'design' ) ;
#101 = ORIENTED_EDGE ( 'NONE', *, *, #163, .F. ) ;
#102 = AXIS2_PLACEMENT_3D ( 'NONE', #80, #94, #110 ) ;
#103 = APPROVAL_PERSON_ORGANIZATION ( #149, #135, #84 ) ;
#104 = ORIENTED_EDGE ( 'NONE', *, *, #163, .T. ) ;
#105 = CARTESIAN_POINT ( 'NONE',  ( 0.7500000000000000000, 0.0000000000000000000, 6.349999999999999645 ) ) ;
#106 = LOCAL_TIME ( 10, 2, 34.00000000000000000, #70 ) ;
#107 = CC_DESIGN_PERSON_AND_ORGANIZATION_ASSIGNMENT ( #1, #173, ( #79 ) ) ;
#108 = EDGE_LOOP ( 'NONE', ( #116, #25, #97, #3 ) ) ;
#109 = MECHANICAL_CONTEXT ( 'NONE', #31, 'mechanical' ) ;
#110 = DIRECTION ( 'NONE',  ( 1.000000000000000000, 0.0000000000000000000, 0.0000000000000000000 ) ) ;
#111 = EDGE_CURVE ( 'NONE', #125, #152, #99, .T. ) ;
#112 = EDGE_CURVE ( 'NONE', #51, #152, #117, .T. ) ;
#113 = APPROVAL_ROLE ( '' ) ;
#114 = UNCERTAINTY_MEASURE_WITH_UNIT (LENGTH_MEASURE( 1.000000000000000082E-05 ), #11, 'distance_accuracy_value', 'NONE');
#115 = CC_DESIGN_DATE_AND_TIME_ASSIGNMENT ( #162, #49, ( #148 ) ) ;
#116 = ORIENTED_EDGE ( 'NONE', *, *, #111, .F. ) ;
#117 = CIRCLE ( 'NONE', #150, 6.349999999999999645 ) ;
#118 = PRODUCT_DEFINITION_FORMATION_WITH_SPECIFIED_SOURCE ( 'ANY', '', #75, .NOT_KNOWN. ) ;
#119 = ORGANIZATION ( 'UNSPECIFIED', 'UNSPECIFIED', '' ) ;
#120 = FACE_OUTER_BOUND ( 'NONE', #108, .T. ) ;
#121 = DIRECTION ( 'NONE',  ( -1.000000000000000000, -0.0000000000000000000, -0.0000000000000000000 ) ) ;
#122 = PERSON_AND_ORGANIZATION ( #66, #119 ) ;
#123 = EDGE_CURVE ( 'NONE', #125, #147, #65, .T. ) ;
#124 = APPROVAL_DATE_TIME ( #22, #131 ) ;
#125 = VERTEX_POINT ( 'NONE', #47 ) ;
#126 = ADVANCED_FACE ( 'NONE', ( #172 ), #78, .T. ) ;
#127 = DIRECTION ( 'NONE',  ( 1.000000000000000000, 0.0000000000000000000, 0.0000000000000000000 ) ) ;
#128 = CARTESIAN_POINT ( 'NONE',  ( 0.7500000000000000000, 0.0000000000000000000, 0.0000000000000000000 ) ) ;
#129 = APPROVAL_DATE_TIME ( #143, #2 ) ;
#130 = PERSON_AND_ORGANIZATION_ROLE ( 'design_owner' ) ;
#131 = APPROVAL ( #144, 'UNSPECIFIED' ) ;
#132 = MANIFOLD_SOLID_BREP ( 'Boss-Extrude1', #158 ) ;
#133 = COORDINATED_UNIVERSAL_TIME_OFFSET ( 5, 0, .BEHIND. ) ;
#134 = DATE_TIME_ROLE ( 'creation_date' ) ;
#135 = APPROVAL ( #160, 'UNSPECIFIED' ) ;
#136 = DIRECTION ( 'NONE',  ( 1.000000000000000000, 0.0000000000000000000, 0.0000000000000000000 ) ) ;
#137 = AXIS2_PLACEMENT_3D ( 'NONE', #156, #81, #57 ) ;
#138 = CC_DESIGN_SECURITY_CLASSIFICATION ( #148, ( #118 ) ) ;
#139 = VECTOR ( 'NONE', #91, 1000.000000000000000 ) ;
#140 = DIRECTION ( 'NONE',  ( 1.000000000000000000, 0.0000000000000000000, 0.0000000000000000000 ) ) ;
#141 = CYLINDRICAL_SURFACE ( 'NONE', #171, 6.349999999999999645 ) ;
#142 = DIRECTION ( 'NONE',  ( 0.0000000000000000000, 0.0000000000000000000, -1.000000000000000000 ) ) ;
#143 = DATE_AND_TIME ( #17, #50 ) ;
#144 = APPROVAL_STATUS ( 'not_yet_approved' ) ;
#145 = ORIENTED_EDGE ( 'NONE', *, *, #112, .F. ) ;
#146 = PERSON_AND_ORGANIZATION ( #66, #119 ) ;
#147 = VERTEX_POINT ( 'NONE', #166 ) ;
#148 = SECURITY_CLASSIFICATION ( '', '', #174 ) ;
#149 = PERSON_AND_ORGANIZATION ( #66, #119 ) ;
#150 = AXIS2_PLACEMENT_3D ( 'NONE', #19, #140, #45 ) ;
#151 = CC_DESIGN_DATE_AND_TIME_ASSIGNMENT ( #13, #134, ( #79 ) ) ;
#152 = VERTEX_POINT ( 'NONE', #167 ) ;
#153 = DIRECTION ( 'NONE',  ( -1.000000000000000000, -0.0000000000000000000, -0.0000000000000000000 ) ) ;
#154 =( NAMED_UNIT ( * ) SI_UNIT ( $, .STERADIAN. ) SOLID_ANGLE_UNIT ( ) );
#155 = ADVANCED_FACE ( 'NONE', ( #34 ), #169, .F. ) ;
#156 = CARTESIAN_POINT ( 'NONE',  ( 0.7500000000000000000, 0.0000000000000000000, 0.0000000000000000000 ) ) ;
#157 = APPLICATION_CONTEXT ( 'configuration controlled 3d designs of mechanical parts and assemblies' ) ;
#158 = CLOSED_SHELL ( 'NONE', ( #126, #9, #55, #155 ) ) ;
#159 = CIRCLE ( 'NONE', #137, 6.349999999999999645 ) ;
#160 = APPROVAL_STATUS ( 'not_yet_approved' ) ;
#161 = CC_DESIGN_PERSON_AND_ORGANIZATION_ASSIGNMENT ( #146, #35, ( #118 ) ) ;
#162 = DATE_AND_TIME ( #93, #53 ) ;
#163 = EDGE_CURVE ( 'NONE', #152, #51, #63, .T. ) ;
#164 = CARTESIAN_POINT ( 'NONE',  ( -0.7500000000000000000, 0.0000000000000000000, 6.349999999999999645 ) ) ;
#165 = PERSON_AND_ORGANIZATION ( #66, #119 ) ;
#166 = CARTESIAN_POINT ( 'NONE',  ( 0.7500000000000000000, 0.0000000000000000000, 6.349999999999999645 ) ) ;
#167 = CARTESIAN_POINT ( 'NONE',  ( -0.7500000000000000000, 7.776507174585692163E-16, -6.349999999999999645 ) ) ;
#168 = AXIS2_PLACEMENT_3D ( 'NONE', #20, #127, #142 ) ;
#169 = PLANE ( 'NONE',  #92 ) ;
#170 = DIRECTION ( 'NONE',  ( 0.0000000000000000000, 0.0000000000000000000, 1.000000000000000000 ) ) ;
#171 = AXIS2_PLACEMENT_3D ( 'NONE', #5, #4, #90 ) ;
#172 = FACE_OUTER_BOUND ( 'NONE', #67, .T. ) ;
#173 = PERSON_AND_ORGANIZATION_ROLE ( 'creator' ) ;
#174 = SECURITY_CLASSIFICATION_LEVEL ( 'unclassified' ) ;
#175 = PERSON_AND_ORGANIZATION ( #66, #119 ) ;
ENDSEC;
END-ISO-10303-21;
