ISO-10303-21;
HEADER;
FILE_DESCRIPTION (( 'STEP AP203' ),
    '1' );
FILE_NAME ('4296-E0W.STEP',
    '2019-12-05T17:51:25',
    ( '' ),
    ( '' ),
    'SwSTEP 2.0',
    'SolidWorks 2018',
    '' );
FILE_SCHEMA (( 'CONFIG_CONTROL_DESIGN' ));
ENDSEC;

DATA;
#1 = DIRECTION ( 'NONE',  ( 0.0000000000000000000, 0.0000000000000000000, -1.000000000000000000 ) ) ;
#2 = CC_DESIGN_PERSON_AND_ORGANIZATION_ASSIGNMENT ( #115, #11, ( #63 ) ) ;
#3 = ORIENTED_EDGE ( 'NONE', *, *, #78, .F. ) ;
#4 = DIRECTION ( 'NONE',  ( 0.7071067811865474617, 0.0000000000000000000, -0.7071067811865475727 ) ) ;
#5 = CARTESIAN_POINT ( 'NONE',  ( -3.299999999999999822, 0.0000000000000000000, 0.0000000000000000000 ) ) ;
#6 =( NAMED_UNIT ( * ) PLANE_ANGLE_UNIT ( ) SI_UNIT ( $, .RADIAN. ) );
#7 = AXIS2_PLACEMENT_3D ( 'NONE', #176, #155, #156 ) ;
#8 = VERTEX_POINT ( 'NONE', #212 ) ;
#9 = DIRECTION ( 'NONE',  ( -1.000000000000000000, -0.0000000000000000000, -0.0000000000000000000 ) ) ;
#10 = PERSON ( 'UNSPECIFIED', 'UNSPECIFIED', 'UNSPECIFIED', ('UNSPECIFIED'), ('UNSPECIFIED'), ('UNSPECIFIED') ) ;
#11 = PERSON_AND_ORGANIZATION_ROLE ( 'creator' ) ;
#12 = DESIGN_CONTEXT ( 'detailed design', #202, 'design' ) ;
#13 = COORDINATED_UNIVERSAL_TIME_OFFSET ( 5, 0, .BEHIND. ) ;
#14 = EDGE_LOOP ( 'NONE', ( #110, #21, #241, #91 ) ) ;
#15 = EDGE_CURVE ( 'NONE', #26, #8, #131, .T. ) ;
#16 = LINE ( 'NONE', #32, #102 ) ;
#17 = ORIENTED_EDGE ( 'NONE', *, *, #41, .T. ) ;
#18 = CC_DESIGN_APPROVAL ( #184, ( #24 ) ) ;
#19 = PERSON_AND_ORGANIZATION ( #10, #162 ) ;
#20 = PERSON_AND_ORGANIZATION ( #10, #162 ) ;
#21 = ORIENTED_EDGE ( 'NONE', *, *, #60, .T. ) ;
#22 = CARTESIAN_POINT ( 'NONE',  ( -3.299999999999999822, 0.0000000000000000000, 0.0000000000000000000 ) ) ;
#23 = PERSON_AND_ORGANIZATION ( #10, #162 ) ;
#24 = SECURITY_CLASSIFICATION ( '', '', #50 ) ;
#25 = PRODUCT ( '4296-E0W', '4296-E0W', '', ( #124 ) ) ;
#26 = VERTEX_POINT ( 'NONE', #135 ) ;
#27 = CARTESIAN_POINT ( 'NONE',  ( -3.299999999999999822, 0.0000000000000000000, 0.0000000000000000000 ) ) ;
#28 = PERSON_AND_ORGANIZATION ( #10, #162 ) ;
#29 = CARTESIAN_POINT ( 'NONE',  ( -0.2999999999999947153, 0.0000000000000000000, 0.0000000000000000000 ) ) ;
#30 = AXIS2_PLACEMENT_3D ( 'NONE', #116, #34, #194 ) ;
#31 = EDGE_LOOP ( 'NONE', ( #188, #233, #3, #54 ) ) ;
#32 = CARTESIAN_POINT ( 'NONE',  ( -3.299999999999999822, 0.0000000000000000000, -25.37500000000000000 ) ) ;
#33 = EDGE_CURVE ( 'NONE', #170, #8, #223, .T. ) ;
#34 = DIRECTION ( 'NONE',  ( -1.000000000000000000, -0.0000000000000000000, -0.0000000000000000000 ) ) ;
#35 = LOCAL_TIME ( 12, 51, 25.00000000000000000, #13 ) ;
#36 = DATE_AND_TIME ( #126, #117 ) ;
#37 = ORIENTED_EDGE ( 'NONE', *, *, #51, .T. ) ;
#38 = CC_DESIGN_APPROVAL ( #237, ( #230 ) ) ;
#39 = TOROIDAL_SURFACE ( 'NONE', #112, -0.08424650143183665119, 92.00000000000000000 ) ;
#40 = DIRECTION ( 'NONE',  ( 1.000000000000000000, 0.0000000000000000000, 0.0000000000000000000 ) ) ;
#41 = EDGE_CURVE ( 'NONE', #8, #183, #52, .T. ) ;
#42 = CIRCLE ( 'NONE', #104, 25.39999999999998792 ) ;
#43 = ADVANCED_FACE ( 'NONE', ( #247 ), #213, .T. ) ;
#44 = CARTESIAN_POINT ( 'NONE',  ( -3.299999999999999822, 0.0000000000000000000, 0.0000000000000000000 ) ) ;
#45 = CIRCLE ( 'NONE', #53, 25.37500000000000000 ) ;
#46 = ADVANCED_FACE ( 'NONE', ( #92 ), #101, .T. ) ;
#47 = APPROVAL_ROLE ( '' ) ;
#48 = CC_DESIGN_PERSON_AND_ORGANIZATION_ASSIGNMENT ( #152, #242, ( #24 ) ) ;
#49 = ADVANCED_BREP_SHAPE_REPRESENTATION ( '4296-E0W', ( #168, #214 ), #136 ) ;
#50 = SECURITY_CLASSIFICATION_LEVEL ( 'unclassified' ) ;
#51 = EDGE_CURVE ( 'NONE', #249, #170, #45, .T. ) ;
#52 = CIRCLE ( 'NONE', #201, 25.39999999999999147 ) ;
#53 = AXIS2_PLACEMENT_3D ( 'NONE', #95, #133, #151 ) ;
#54 = ORIENTED_EDGE ( 'NONE', *, *, #164, .F. ) ;
#55 = CONICAL_SURFACE ( 'NONE', #123, 25.37500000000000000, 0.7853981633974482790 ) ;
#56 = ORIENTED_EDGE ( 'NONE', *, *, #108, .T. ) ;
#57 = FACE_OUTER_BOUND ( 'NONE', #14, .T. ) ;
#58 = CARTESIAN_POINT ( 'NONE',  ( -3.275000000000009681, 0.0000000000000000000, 0.0000000000000000000 ) ) ;
#59 = ORIENTED_EDGE ( 'NONE', *, *, #149, .F. ) ;
#60 = EDGE_CURVE ( 'NONE', #195, #183, #191, .T. ) ;
#61 = COORDINATED_UNIVERSAL_TIME_OFFSET ( 5, 0, .BEHIND. ) ;
#62 = DIRECTION ( 'NONE',  ( -1.000000000000000000, -0.0000000000000000000, -0.0000000000000000000 ) ) ;
#63 = PRODUCT_DEFINITION ( 'UNKNOWN', '', #230, #12 ) ;
#64 = ADVANCED_FACE ( 'NONE', ( #251 ), #55, .T. ) ;
#65 = DIRECTION ( 'NONE',  ( 0.0000000000000000000, -1.000000000000000000, 0.0000000000000000000 ) ) ;
#66 = ORIENTED_EDGE ( 'NONE', *, *, #127, .F. ) ;
#67 = DIRECTION ( 'NONE',  ( -1.000000000000000000, -0.0000000000000000000, -0.0000000000000000000 ) ) ;
#68 = DIRECTION ( 'NONE',  ( 1.000000000000000000, 0.0000000000000000000, 0.0000000000000000000 ) ) ;
#69 = ORIENTED_EDGE ( 'NONE', *, *, #130, .T. ) ;
#70 = APPLICATION_PROTOCOL_DEFINITION ( 'international standard', 'config_control_design', 1994, #179 ) ;
#71 = DATE_AND_TIME ( #173, #35 ) ;
#72 = AXIS2_PLACEMENT_3D ( 'NONE', #5, #85, #159 ) ;
#73 = LOCAL_TIME ( 12, 51, 25.00000000000000000, #166 ) ;
#74 = DIRECTION ( 'NONE',  ( 0.0000000000000000000, 0.0000000000000000000, 1.000000000000000000 ) ) ;
#75 = ORIENTED_EDGE ( 'NONE', *, *, #164, .T. ) ;
#76 = VECTOR ( 'NONE', #232, 1000.000000000000000 ) ;
#77 = DATE_AND_TIME ( #167, #125 ) ;
#78 = EDGE_CURVE ( 'NONE', #183, #8, #196, .T. ) ;
#79 = EDGE_LOOP ( 'NONE', ( #37, #69 ) ) ;
#80 = CARTESIAN_POINT ( 'NONE',  ( -3.299999999999999822, 3.107541252836408329E-15, 25.37500000000000000 ) ) ;
#81 = APPROVAL_DATE_TIME ( #36, #237 ) ;
#82 = FACE_OUTER_BOUND ( 'NONE', #150, .T. ) ;
#83 = DIRECTION ( 'NONE',  ( 0.0000000000000000000, 0.0000000000000000000, 1.000000000000000000 ) ) ;
#84 = DIRECTION ( 'NONE',  ( 0.0000000000000000000, 0.0000000000000000000, -1.000000000000000000 ) ) ;
#85 = DIRECTION ( 'NONE',  ( -1.000000000000000000, -0.0000000000000000000, -0.0000000000000000000 ) ) ;
#86 = PERSON_AND_ORGANIZATION_ROLE ( 'design_supplier' ) ;
#87 = ORIENTED_EDGE ( 'NONE', *, *, #33, .F. ) ;
#88 = DATE_AND_TIME ( #235, #137 ) ;
#89 = APPROVAL_STATUS ( 'not_yet_approved' ) ;
#90 = AXIS2_PLACEMENT_3D ( 'NONE', #44, #120, #84 ) ;
#91 = ORIENTED_EDGE ( 'NONE', *, *, #15, .F. ) ;
#92 = FACE_OUTER_BOUND ( 'NONE', #211, .T. ) ;
#93 = FACE_OUTER_BOUND ( 'NONE', #180, .T. ) ;
#94 = AXIS2_PLACEMENT_3D ( 'NONE', #27, #186, #113 ) ;
#95 = CARTESIAN_POINT ( 'NONE',  ( -3.299999999999999822, 0.0000000000000000000, 0.0000000000000000000 ) ) ;
#96 = DIRECTION ( 'NONE',  ( 0.7071067811865474617, 8.659560562354931626E-17, 0.7071067811865475727 ) ) ;
#97 = ORIENTED_EDGE ( 'NONE', *, *, #149, .T. ) ;
#98 = DIRECTION ( 'NONE',  ( 1.000000000000000000, 0.0000000000000000000, 0.0000000000000000000 ) ) ;
#99 = PRODUCT_DEFINITION_SHAPE ( 'NONE', 'NONE',  #63 ) ;
#100 = CARTESIAN_POINT ( 'NONE',  ( -88.69996142676906459, 0.0000000000000000000, 0.0000000000000000000 ) ) ;
#101 = TOROIDAL_SURFACE ( 'NONE', #219, -0.08424650143183665119, 92.00000000000000000 ) ;
#102 = VECTOR ( 'NONE', #4, 1000.000000000000000 ) ;
#103 = CARTESIAN_POINT ( 'NONE',  ( -3.275000000000009681, 3.110602869834276076E-15, -25.39999999999999147 ) ) ;
#104 = AXIS2_PLACEMENT_3D ( 'NONE', #157, #67, #239 ) ;
#105 = DIRECTION ( 'NONE',  ( 0.0000000000000000000, 0.0000000000000000000, -1.000000000000000000 ) ) ;
#106 = DIRECTION ( 'NONE',  ( 1.000000000000000000, 0.0000000000000000000, 0.0000000000000000000 ) ) ;
#107 = ORIENTED_EDGE ( 'NONE', *, *, #41, .F. ) ;
#108 = EDGE_CURVE ( 'NONE', #205, #26, #177, .T. ) ;
#109 = APPROVAL_STATUS ( 'not_yet_approved' ) ;
#110 = ORIENTED_EDGE ( 'NONE', *, *, #207, .T. ) ;
#111 = APPROVAL_PERSON_ORGANIZATION ( #28, #204, #245 ) ;
#112 = AXIS2_PLACEMENT_3D ( 'NONE', #100, #62, #83 ) ;
#113 = DIRECTION ( 'NONE',  ( 0.0000000000000000000, 0.0000000000000000000, -1.000000000000000000 ) ) ;
#114 = ORIENTED_EDGE ( 'NONE', *, *, #51, .F. ) ;
#115 = PERSON_AND_ORGANIZATION ( #10, #162 ) ;
#116 = CARTESIAN_POINT ( 'NONE',  ( -3.299999999999999822, 0.0000000000000000000, 0.0000000000000000000 ) ) ;
#117 = LOCAL_TIME ( 12, 51, 25.00000000000000000, #206 ) ;
#118 = CARTESIAN_POINT ( 'NONE',  ( -0.2999999999999947153, 3.110602869834276076E-15, -25.39999999999998792 ) ) ;
#119 = ORIENTED_EDGE ( 'NONE', *, *, #108, .F. ) ;
#120 = DIRECTION ( 'NONE',  ( -1.000000000000000000, -0.0000000000000000000, -0.0000000000000000000 ) ) ;
#121 = DATE_AND_TIME ( #216, #73 ) ;
#122 = CARTESIAN_POINT ( 'NONE',  ( 0.0000000000000000000, 0.0000000000000000000, 0.0000000000000000000 ) ) ;
#123 = AXIS2_PLACEMENT_3D ( 'NONE', #22, #98, #1 ) ;
#124 = MECHANICAL_CONTEXT ( 'NONE', #179, 'mechanical' ) ;
#125 = LOCAL_TIME ( 12, 51, 25.00000000000000000, #61 ) ;
#126 = CALENDAR_DATE ( 2019, 5, 12 ) ;
#127 = EDGE_CURVE ( 'NONE', #205, #195, #246, .T. ) ;
#128 = APPROVAL_ROLE ( '' ) ;
#129 = CC_DESIGN_PERSON_AND_ORGANIZATION_ASSIGNMENT ( #222, #86, ( #230 ) ) ;
#130 = EDGE_CURVE ( 'NONE', #170, #249, #181, .T. ) ;
#131 = LINE ( 'NONE', #234, #76 ) ;
#132 = DIRECTION ( 'NONE',  ( -1.000000000000000000, -0.0000000000000000000, -0.0000000000000000000 ) ) ;
#133 = DIRECTION ( 'NONE',  ( -1.000000000000000000, -0.0000000000000000000, -0.0000000000000000000 ) ) ;
#134 = CARTESIAN_POINT ( 'NONE',  ( -88.69996142676906459, 0.0000000000000000000, 0.0000000000000000000 ) ) ;
#135 = CARTESIAN_POINT ( 'NONE',  ( -0.2999999999999947153, 0.0000000000000000000, 25.39999999999998792 ) ) ;
#136 =( GEOMETRIC_REPRESENTATION_CONTEXT ( 3 ) GLOBAL_UNCERTAINTY_ASSIGNED_CONTEXT ( ( #145 ) ) GLOBAL_UNIT_ASSIGNED_CONTEXT ( ( #154, #6, #139 ) ) REPRESENTATION_CONTEXT ( 'NONE', 'WORKASPACE' ) );
#137 = LOCAL_TIME ( 12, 51, 25.00000000000000000, #163 ) ;
#138 = DIRECTION ( 'NONE',  ( 0.0000000000000000000, 0.0000000000000000000, -1.000000000000000000 ) ) ;
#139 =( NAMED_UNIT ( * ) SI_UNIT ( $, .STERADIAN. ) SOLID_ANGLE_UNIT ( ) );
#140 = CARTESIAN_POINT ( 'NONE',  ( -3.275000000000009681, 0.0000000000000000000, 0.0000000000000000000 ) ) ;
#141 = AXIS2_PLACEMENT_3D ( 'NONE', #140, #175, #138 ) ;
#142 = CARTESIAN_POINT ( 'NONE',  ( -3.299999999999999822, 0.0000000000000000000, 0.0000000000000000000 ) ) ;
#143 = ORIENTED_EDGE ( 'NONE', *, *, #15, .T. ) ;
#144 = DATE_TIME_ROLE ( 'classification_date' ) ;
#145 = UNCERTAINTY_MEASURE_WITH_UNIT (LENGTH_MEASURE( 1.000000000000000082E-05 ), #154, 'distance_accuracy_value', 'NONE');
#146 = VECTOR ( 'NONE', #172, 1000.000000000000000 ) ;
#147 = PRODUCT_RELATED_PRODUCT_CATEGORY ( 'detail', '', ( #25 ) ) ;
#148 = EDGE_LOOP ( 'NONE', ( #87, #114, #75, #107 ) ) ;
#149 = EDGE_CURVE ( 'NONE', #195, #26, #42, .T. ) ;
#150 = EDGE_LOOP ( 'NONE', ( #119, #218, #227 ) ) ;
#151 = DIRECTION ( 'NONE',  ( 0.0000000000000000000, 0.0000000000000000000, -1.000000000000000000 ) ) ;
#152 = PERSON_AND_ORGANIZATION ( #10, #162 ) ;
#153 = ADVANCED_FACE ( 'NONE', ( #82 ), #39, .T. ) ;
#154 =( LENGTH_UNIT ( ) NAMED_UNIT ( * ) SI_UNIT ( .MILLI., .METRE. ) );
#155 = DIRECTION ( 'NONE',  ( -0.0000000000000000000, 1.000000000000000000, 1.224646799147353207E-16 ) ) ;
#156 = DIRECTION ( 'NONE',  ( 0.0000000000000000000, -1.224646799147353207E-16, 1.000000000000000000 ) ) ;
#157 = CARTESIAN_POINT ( 'NONE',  ( -0.2999999999999947153, 0.0000000000000000000, 0.0000000000000000000 ) ) ;
#158 = CLOSED_SHELL ( 'NONE', ( #43, #153, #189, #220, #197, #46, #64 ) ) ;
#159 = DIRECTION ( 'NONE',  ( 0.0000000000000000000, 0.0000000000000000000, 1.000000000000000000 ) ) ;
#160 = APPROVAL_DATE_TIME ( #121, #184 ) ;
#161 = AXIS2_PLACEMENT_3D ( 'NONE', #29, #9, #174 ) ;
#162 = ORGANIZATION ( 'UNSPECIFIED', 'UNSPECIFIED', '' ) ;
#163 = COORDINATED_UNIVERSAL_TIME_OFFSET ( 5, 0, .BEHIND. ) ;
#164 = EDGE_CURVE ( 'NONE', #249, #183, #16, .T. ) ;
#165 = CC_DESIGN_PERSON_AND_ORGANIZATION_ASSIGNMENT ( #23, #200, ( #230 ) ) ;
#166 = COORDINATED_UNIVERSAL_TIME_OFFSET ( 5, 0, .BEHIND. ) ;
#167 = CALENDAR_DATE ( 2019, 5, 12 ) ;
#168 = MANIFOLD_SOLID_BREP ( '4296-001-1-solid1', #158 ) ;
#169 = CC_DESIGN_PERSON_AND_ORGANIZATION_ASSIGNMENT ( #228, #198, ( #25 ) ) ;
#170 = VERTEX_POINT ( 'NONE', #178 ) ;
#171 = DIRECTION ( 'NONE',  ( 0.0000000000000000000, 0.0000000000000000000, 1.000000000000000000 ) ) ;
#172 = DIRECTION ( 'NONE',  ( -1.000000000000000000, -0.0000000000000000000, -0.0000000000000000000 ) ) ;
#173 = CALENDAR_DATE ( 2019, 5, 12 ) ;
#174 = DIRECTION ( 'NONE',  ( 0.0000000000000000000, 0.0000000000000000000, 1.000000000000000000 ) ) ;
#175 = DIRECTION ( 'NONE',  ( 1.000000000000000000, 0.0000000000000000000, 0.0000000000000000000 ) ) ;
#176 = CARTESIAN_POINT ( 'NONE',  ( -88.69996142676906459, -1.031722083178616619E-17, 0.08424650143183665119 ) ) ;
#177 = CIRCLE ( 'NONE', #199, 92.00000000000000000 ) ;
#178 = CARTESIAN_POINT ( 'NONE',  ( -3.299999999999999822, 3.109072061335341808E-15, 25.37500000000000000 ) ) ;
#179 = APPLICATION_CONTEXT ( 'configuration controlled 3d designs of mechanical parts and assemblies' ) ;
#180 = EDGE_LOOP ( 'NONE', ( #226, #97, #143, #17 ) ) ;
#181 = CIRCLE ( 'NONE', #90, 25.37500000000000000 ) ;
#182 = APPROVAL_STATUS ( 'not_yet_approved' ) ;
#183 = VERTEX_POINT ( 'NONE', #103 ) ;
#184 = APPROVAL ( #109, 'UNSPECIFIED' ) ;
#185 = FACE_OUTER_BOUND ( 'NONE', #79, .T. ) ;
#186 = DIRECTION ( 'NONE',  ( 1.000000000000000000, 0.0000000000000000000, 0.0000000000000000000 ) ) ;
#187 = CC_DESIGN_DATE_AND_TIME_ASSIGNMENT ( #88, #144, ( #24 ) ) ;
#188 = ORIENTED_EDGE ( 'NONE', *, *, #130, .F. ) ;
#189 = ADVANCED_FACE ( 'NONE', ( #57 ), #203, .T. ) ;
#190 = CARTESIAN_POINT ( 'NONE',  ( -3.299999999999999822, 0.0000000000000000000, -25.37500000000000000 ) ) ;
#191 = LINE ( 'NONE', #231, #146 ) ;
#192 = AXIS2_PLACEMENT_3D ( 'NONE', #142, #106, #105 ) ;
#193 = CIRCLE ( 'NONE', #161, 25.39999999999998792 ) ;
#194 = DIRECTION ( 'NONE',  ( 0.0000000000000000000, 0.0000000000000000000, 1.000000000000000000 ) ) ;
#195 = VERTEX_POINT ( 'NONE', #118 ) ;
#196 = CIRCLE ( 'NONE', #141, 25.39999999999999147 ) ;
#197 = ADVANCED_FACE ( 'NONE', ( #93 ), #238, .T. ) ;
#198 = PERSON_AND_ORGANIZATION_ROLE ( 'design_owner' ) ;
#199 = AXIS2_PLACEMENT_3D ( 'NONE', #240, #65, #236 ) ;
#200 = PERSON_AND_ORGANIZATION_ROLE ( 'creator' ) ;
#201 = AXIS2_PLACEMENT_3D ( 'NONE', #58, #40, #250 ) ;
#202 = APPLICATION_CONTEXT ( 'configuration controlled 3d designs of mechanical parts and assemblies' ) ;
#203 = CYLINDRICAL_SURFACE ( 'NONE', #30, 25.39999999999999147 ) ;
#204 = APPROVAL ( #89, 'UNSPECIFIED' ) ;
#205 = VERTEX_POINT ( 'NONE', #221 ) ;
#206 = COORDINATED_UNIVERSAL_TIME_OFFSET ( 5, 0, .BEHIND. ) ;
#207 = EDGE_CURVE ( 'NONE', #26, #195, #193, .T. ) ;
#208 = SHAPE_DEFINITION_REPRESENTATION ( #99, #49 ) ;
#209 = APPROVAL_PERSON_ORGANIZATION ( #20, #184, #47 ) ;
#210 = CC_DESIGN_DATE_AND_TIME_ASSIGNMENT ( #71, #224, ( #63 ) ) ;
#211 = EDGE_LOOP ( 'NONE', ( #66, #56, #59 ) ) ;
#212 = CARTESIAN_POINT ( 'NONE',  ( -3.275000000000009681, 0.0000000000000000000, 25.39999999999999147 ) ) ;
#213 = CONICAL_SURFACE ( 'NONE', #94, 25.37500000000000000, 0.7853981633974482790 ) ;
#214 = AXIS2_PLACEMENT_3D ( 'NONE', #122, #74, #68 ) ;
#215 = APPROVAL_PERSON_ORGANIZATION ( #19, #237, #128 ) ;
#216 = CALENDAR_DATE ( 2019, 5, 12 ) ;
#217 = PLANE ( 'NONE',  #192 ) ;
#218 = ORIENTED_EDGE ( 'NONE', *, *, #127, .T. ) ;
#219 = AXIS2_PLACEMENT_3D ( 'NONE', #134, #132, #171 ) ;
#220 = ADVANCED_FACE ( 'NONE', ( #185 ), #217, .F. ) ;
#221 = CARTESIAN_POINT ( 'NONE',  ( 3.299999999999999822, 0.0000000000000000000, 0.0000000000000000000 ) ) ;
#222 = PERSON_AND_ORGANIZATION ( #10, #162 ) ;
#223 = LINE ( 'NONE', #80, #244 ) ;
#224 = DATE_TIME_ROLE ( 'creation_date' ) ;
#225 = APPROVAL_DATE_TIME ( #77, #204 ) ;
#226 = ORIENTED_EDGE ( 'NONE', *, *, #60, .F. ) ;
#227 = ORIENTED_EDGE ( 'NONE', *, *, #207, .F. ) ;
#228 = PERSON_AND_ORGANIZATION ( #10, #162 ) ;
#229 = CC_DESIGN_APPROVAL ( #204, ( #63 ) ) ;
#230 = PRODUCT_DEFINITION_FORMATION_WITH_SPECIFIED_SOURCE ( 'ANY', '', #25, .NOT_KNOWN. ) ;
#231 = CARTESIAN_POINT ( 'NONE',  ( -3.299999999999999822, 3.110602869834276076E-15, -25.39999999999999147 ) ) ;
#232 = DIRECTION ( 'NONE',  ( -1.000000000000000000, -0.0000000000000000000, -0.0000000000000000000 ) ) ;
#233 = ORIENTED_EDGE ( 'NONE', *, *, #33, .T. ) ;
#234 = CARTESIAN_POINT ( 'NONE',  ( -3.299999999999999822, 0.0000000000000000000, 25.39999999999999147 ) ) ;
#235 = CALENDAR_DATE ( 2019, 5, 12 ) ;
#236 = DIRECTION ( 'NONE',  ( 0.0000000000000000000, 0.0000000000000000000, -1.000000000000000000 ) ) ;
#237 = APPROVAL ( #182, 'UNSPECIFIED' ) ;
#238 = CYLINDRICAL_SURFACE ( 'NONE', #72, 25.39999999999999147 ) ;
#239 = DIRECTION ( 'NONE',  ( 0.0000000000000000000, 0.0000000000000000000, 1.000000000000000000 ) ) ;
#240 = CARTESIAN_POINT ( 'NONE',  ( -88.69996142676906459, 0.0000000000000000000, -0.08424650143183665119 ) ) ;
#241 = ORIENTED_EDGE ( 'NONE', *, *, #78, .T. ) ;
#242 = PERSON_AND_ORGANIZATION_ROLE ( 'classification_officer' ) ;
#243 = APPLICATION_PROTOCOL_DEFINITION ( 'international standard', 'config_control_design', 1994, #202 ) ;
#244 = VECTOR ( 'NONE', #96, 1000.000000000000000 ) ;
#245 = APPROVAL_ROLE ( '' ) ;
#246 = CIRCLE ( 'NONE', #7, 92.00000000000000000 ) ;
#247 = FACE_OUTER_BOUND ( 'NONE', #31, .T. ) ;
#248 = CC_DESIGN_SECURITY_CLASSIFICATION ( #24, ( #230 ) ) ;
#249 = VERTEX_POINT ( 'NONE', #190 ) ;
#250 = DIRECTION ( 'NONE',  ( 0.0000000000000000000, 0.0000000000000000000, -1.000000000000000000 ) ) ;
#251 = FACE_OUTER_BOUND ( 'NONE', #148, .T. ) ;
ENDSEC;
END-ISO-10303-21;
