ISO-10303-21;
HEADER;
FILE_DESCRIPTION (( 'STEP AP203' ),
    '1' );
FILE_NAME ('Web Model 19841_19875.step',
    '2022-04-06T15:15:24',
    ( 'WC' ),
    ( 'Windows Central' ),
    'SwSTEP 2.0',
    'SolidWorks 2021',
    '' );
FILE_SCHEMA (( 'CONFIG_CONTROL_DESIGN' ));
ENDSEC;

DATA;
#1 = LOCAL_TIME ( 11, 15, 24.00000000000000000, #63 ) ;
#2 = VERTEX_POINT ( 'NONE', #7 ) ;
#3 = ORIENTED_EDGE ( 'NONE', *, *, #83, .F. ) ;
#4 = CARTESIAN_POINT ( 'NONE',  ( 0.000000000000000000, 0.000000000000000000, 1.000000000000000000 ) ) ;
#5 = CARTESIAN_POINT ( 'NONE',  ( 0.000000000000000000, 0.000000000000000000, 1.000000000000000000 ) ) ;
#6 =( NAMED_UNIT ( * ) SI_UNIT ( $, .STERADIAN. ) SOLID_ANGLE_UNIT ( ) );
#7 = CARTESIAN_POINT ( 'NONE',  ( 25.00000000000000000, 3.061616997868383043E-15, 0.000000000000000000 ) ) ;
#8 = FACE_OUTER_BOUND ( 'NONE', #68, .T. ) ;
#9 = COORDINATED_UNIVERSAL_TIME_OFFSET ( 5, 0, .BEHIND. ) ;
#10 = AXIS2_PLACEMENT_3D ( 'NONE', #152, #169, #21 ) ;
#11 = DATE_AND_TIME ( #28, #108 ) ;
#12 = PERSON_AND_ORGANIZATION ( #160, #33 ) ;
#13 = CC_DESIGN_SECURITY_CLASSIFICATION ( #91, ( #96 ) ) ;
#14 = VERTEX_POINT ( 'NONE', #22 ) ;
#15 = APPROVAL_PERSON_ORGANIZATION ( #129, #18, #102 ) ;
#16 = EDGE_CURVE ( 'NONE', #133, #14, #59, .T. ) ;
#17 = CIRCLE ( 'NONE', #42, 25.00000000000000000 ) ;
#18 = APPROVAL ( #26, 'UNSPECIFIED' ) ;
#19 = CYLINDRICAL_SURFACE ( 'NONE', #147, 25.00000000000000000 ) ;
#20 = APPROVAL ( #128, 'UNSPECIFIED' ) ;
#21 = DIRECTION ( 'NONE',  ( 1.000000000000000000, 0.000000000000000000, -0.000000000000000000 ) ) ;
#22 = CARTESIAN_POINT ( 'NONE',  ( -25.00000000000000000, 0.000000000000000000, 0.000000000000000000 ) ) ;
#23 = LOCAL_TIME ( 11, 15, 24.00000000000000000, #77 ) ;
#24 = ADVANCED_FACE ( 'NONE', ( #86 ), #98, .T. ) ;
#25 = CC_DESIGN_PERSON_AND_ORGANIZATION_ASSIGNMENT ( #175, #173, ( #91 ) ) ;
#26 = APPROVAL_STATUS ( 'not_yet_approved' ) ;
#27 = DATE_TIME_ROLE ( 'creation_date' ) ;
#28 = CALENDAR_DATE ( 2022, 6, 4 ) ;
#29 = SHAPE_DEFINITION_REPRESENTATION ( #89, #123 ) ;
#30 = ORIENTED_EDGE ( 'NONE', *, *, #149, .F. ) ;
#31 = EDGE_LOOP ( 'NONE', ( #30, #94, #120, #43 ) ) ;
#32 = ADVANCED_FACE ( 'NONE', ( #8 ), #85, .F. ) ;
#33 = ORGANIZATION ( 'UNSPECIFIED', 'UNSPECIFIED', '' ) ;
#34 = LOCAL_TIME ( 11, 15, 24.00000000000000000, #9 ) ;
#35 = DIRECTION ( 'NONE',  ( -0.000000000000000000, -0.000000000000000000, -1.000000000000000000 ) ) ;
#36 = FACE_OUTER_BOUND ( 'NONE', #79, .T. ) ;
#37 = CARTESIAN_POINT ( 'NONE',  ( 0.000000000000000000, 0.000000000000000000, 1.000000000000000000 ) ) ;
#38 = DIRECTION ( 'NONE',  ( 1.000000000000000000, 0.000000000000000000, 0.000000000000000000 ) ) ;
#39 = APPROVAL_STATUS ( 'not_yet_approved' ) ;
#40 = CALENDAR_DATE ( 2022, 6, 4 ) ;
#41 = CIRCLE ( 'NONE', #159, 25.00000000000000000 ) ;
#42 = AXIS2_PLACEMENT_3D ( 'NONE', #48, #127, #38 ) ;
#43 = ORIENTED_EDGE ( 'NONE', *, *, #83, .T. ) ;
#44 = ORIENTED_EDGE ( 'NONE', *, *, #149, .T. ) ;
#45 = CARTESIAN_POINT ( 'NONE',  ( 25.00000000000000000, 3.061616997868383043E-15, 1.000000000000000000 ) ) ;
#46 = LOCAL_TIME ( 11, 15, 24.00000000000000000, #146 ) ;
#47 = ORIENTED_EDGE ( 'NONE', *, *, #81, .F. ) ;
#48 = CARTESIAN_POINT ( 'NONE',  ( 0.000000000000000000, 0.000000000000000000, 0.000000000000000000 ) ) ;
#49 = DIRECTION ( 'NONE',  ( 0.000000000000000000, 0.000000000000000000, 1.000000000000000000 ) ) ;
#50 = APPROVAL_DATE_TIME ( #117, #20 ) ;
#51 = CALENDAR_DATE ( 2022, 6, 4 ) ;
#52 = SECURITY_CLASSIFICATION_LEVEL ( 'unclassified' ) ;
#53 = ORIENTED_EDGE ( 'NONE', *, *, #16, .F. ) ;
#54 = EDGE_LOOP ( 'NONE', ( #69, #126 ) ) ;
#55 = CC_DESIGN_PERSON_AND_ORGANIZATION_ASSIGNMENT ( #88, #157, ( #96 ) ) ;
#56 = DIRECTION ( 'NONE',  ( -0.000000000000000000, -0.000000000000000000, -1.000000000000000000 ) ) ;
#57 = CARTESIAN_POINT ( 'NONE',  ( -25.00000000000000000, 0.000000000000000000, 1.000000000000000000 ) ) ;
#58 = VECTOR ( 'NONE', #35, 1000.000000000000000 ) ;
#59 = LINE ( 'NONE', #170, #66 ) ;
#60 = UNCERTAINTY_MEASURE_WITH_UNIT (LENGTH_MEASURE( 1.000000000000000082E-05 ), #97, 'distance_accuracy_value', 'NONE');
#61 = DIRECTION ( 'NONE',  ( 1.000000000000000000, 0.000000000000000000, 0.000000000000000000 ) ) ;
#62 = CARTESIAN_POINT ( 'NONE',  ( 0.000000000000000000, 0.000000000000000000, 1.000000000000000000 ) ) ;
#63 = COORDINATED_UNIVERSAL_TIME_OFFSET ( 5, 0, .BEHIND. ) ;
#64 = CIRCLE ( 'NONE', #163, 25.00000000000000000 ) ;
#65 = APPROVAL_DATE_TIME ( #11, #18 ) ;
#66 = VECTOR ( 'NONE', #72, 1000.000000000000000 ) ;
#67 = APPROVAL_PERSON_ORGANIZATION ( #111, #20, #100 ) ;
#68 = EDGE_LOOP ( 'NONE', ( #3, #47 ) ) ;
#69 = ORIENTED_EDGE ( 'NONE', *, *, #174, .T. ) ;
#70 = CARTESIAN_POINT ( 'NONE',  ( 25.00000000000000000, 3.061616997868383043E-15, 1.000000000000000000 ) ) ;
#71 = CARTESIAN_POINT ( 'NONE',  ( 0.000000000000000000, 0.000000000000000000, 0.000000000000000000 ) ) ;
#72 = DIRECTION ( 'NONE',  ( -0.000000000000000000, -0.000000000000000000, -1.000000000000000000 ) ) ;
#73 = PRODUCT_DEFINITION ( 'UNKNOWN', '', #96, #125 ) ;
#74 = APPLICATION_PROTOCOL_DEFINITION ( 'international standard', 'config_control_design', 1994, #154 ) ;
#75 = AXIS2_PLACEMENT_3D ( 'NONE', #4, #122, #166 ) ;
#76 = PERSON_AND_ORGANIZATION_ROLE ( 'creator' ) ;
#77 = COORDINATED_UNIVERSAL_TIME_OFFSET ( 5, 0, .BEHIND. ) ;
#78 = DATE_TIME_ROLE ( 'classification_date' ) ;
#79 = EDGE_LOOP ( 'NONE', ( #80, #44, #105, #53 ) ) ;
#80 = ORIENTED_EDGE ( 'NONE', *, *, #101, .F. ) ;
#81 = EDGE_CURVE ( 'NONE', #2, #14, #93, .T. ) ;
#82 = CYLINDRICAL_SURFACE ( 'NONE', #75, 25.00000000000000000 ) ;
#83 = EDGE_CURVE ( 'NONE', #14, #2, #17, .T. ) ;
#84 = DIRECTION ( 'NONE',  ( 1.000000000000000000, 0.000000000000000000, 0.000000000000000000 ) ) ;
#85 = PLANE ( 'NONE',  #10 ) ;
#86 = FACE_OUTER_BOUND ( 'NONE', #54, .T. ) ;
#87 = APPLICATION_PROTOCOL_DEFINITION ( 'international standard', 'config_control_design', 1994, #138 ) ;
#88 = PERSON_AND_ORGANIZATION ( #160, #33 ) ;
#89 = PRODUCT_DEFINITION_SHAPE ( 'NONE', 'NONE',  #73 ) ;
#90 = APPROVAL_ROLE ( '' ) ;
#91 = SECURITY_CLASSIFICATION ( '', '', #52 ) ;
#92 = DATE_AND_TIME ( #51, #46 ) ;
#93 = CIRCLE ( 'NONE', #112, 25.00000000000000000 ) ;
#94 = ORIENTED_EDGE ( 'NONE', *, *, #174, .F. ) ;
#95 = LINE ( 'NONE', #70, #58 ) ;
#96 = PRODUCT_DEFINITION_FORMATION_WITH_SPECIFIED_SOURCE ( 'ANY', '', #113, .NOT_KNOWN. ) ;
#97 =( LENGTH_UNIT ( ) NAMED_UNIT ( * ) SI_UNIT ( .MILLI., .METRE. ) );
#98 = PLANE ( 'NONE',  #165 ) ;
#99 = PERSON_AND_ORGANIZATION ( #160, #33 ) ;
#100 = APPROVAL_ROLE ( '' ) ;
#101 = EDGE_CURVE ( 'NONE', #136, #133, #64, .T. ) ;
#102 = APPROVAL_ROLE ( '' ) ;
#103 = PERSON_AND_ORGANIZATION_ROLE ( 'design_supplier' ) ;
#104 = CC_DESIGN_PERSON_AND_ORGANIZATION_ASSIGNMENT ( #145, #103, ( #96 ) ) ;
#105 = ORIENTED_EDGE ( 'NONE', *, *, #81, .T. ) ;
#106 = DIRECTION ( 'NONE',  ( -1.000000000000000000, 0.000000000000000000, 0.000000000000000000 ) ) ;
#107 = DIRECTION ( 'NONE',  ( 0.000000000000000000, 0.000000000000000000, 1.000000000000000000 ) ) ;
#108 = LOCAL_TIME ( 11, 15, 24.00000000000000000, #148 ) ;
#109 = DIRECTION ( 'NONE',  ( 1.000000000000000000, 0.000000000000000000, -0.000000000000000000 ) ) ;
#110 = DIRECTION ( 'NONE',  ( 0.000000000000000000, 0.000000000000000000, 1.000000000000000000 ) ) ;
#111 = PERSON_AND_ORGANIZATION ( #160, #33 ) ;
#112 = AXIS2_PLACEMENT_3D ( 'NONE', #71, #153, #61 ) ;
#113 = PRODUCT ( 'Web Model 19841_19875', 'Web Model 19841_19875', '', ( #131 ) ) ;
#114 = DATE_AND_TIME ( #40, #1 ) ;
#115 = ADVANCED_FACE ( 'NONE', ( #36 ), #19, .T. ) ;
#116 = DIRECTION ( 'NONE',  ( 1.000000000000000000, 0.000000000000000000, 0.000000000000000000 ) ) ;
#117 = DATE_AND_TIME ( #161, #34 ) ;
#118 = APPROVAL ( #39, 'UNSPECIFIED' ) ;
#119 = CC_DESIGN_APPROVAL ( #118, ( #96 ) ) ;
#120 = ORIENTED_EDGE ( 'NONE', *, *, #16, .T. ) ;
#121 = CC_DESIGN_APPROVAL ( #18, ( #91 ) ) ;
#122 = DIRECTION ( 'NONE',  ( -0.000000000000000000, -0.000000000000000000, -1.000000000000000000 ) ) ;
#123 = ADVANCED_BREP_SHAPE_REPRESENTATION ( 'Web Model 19841_19875', ( #162, #124 ), #130 ) ;
#124 = AXIS2_PLACEMENT_3D ( 'NONE', #172, #49, #116 ) ;
#125 = DESIGN_CONTEXT ( 'detailed design', #154, 'design' ) ;
#126 = ORIENTED_EDGE ( 'NONE', *, *, #101, .T. ) ;
#127 = DIRECTION ( 'NONE',  ( 0.000000000000000000, 0.000000000000000000, 1.000000000000000000 ) ) ;
#128 = APPROVAL_STATUS ( 'not_yet_approved' ) ;
#129 = PERSON_AND_ORGANIZATION ( #160, #33 ) ;
#130 =( GEOMETRIC_REPRESENTATION_CONTEXT ( 3 ) GLOBAL_UNCERTAINTY_ASSIGNED_CONTEXT ( ( #60 ) ) GLOBAL_UNIT_ASSIGNED_CONTEXT ( ( #97, #140, #6 ) ) REPRESENTATION_CONTEXT ( 'NONE', 'WORKASPACE' ) );
#131 = MECHANICAL_CONTEXT ( 'NONE', #138, 'mechanical' ) ;
#132 = APPROVAL_DATE_TIME ( #144, #118 ) ;
#133 = VERTEX_POINT ( 'NONE', #57 ) ;
#134 = ADVANCED_FACE ( 'NONE', ( #139 ), #82, .T. ) ;
#135 = CC_DESIGN_DATE_AND_TIME_ASSIGNMENT ( #92, #78, ( #91 ) ) ;
#136 = VERTEX_POINT ( 'NONE', #45 ) ;
#137 = CC_DESIGN_PERSON_AND_ORGANIZATION_ASSIGNMENT ( #99, #76, ( #73 ) ) ;
#138 = APPLICATION_CONTEXT ( 'configuration controlled 3d designs of mechanical parts and assemblies' ) ;
#139 = FACE_OUTER_BOUND ( 'NONE', #31, .T. ) ;
#140 =( NAMED_UNIT ( * ) PLANE_ANGLE_UNIT ( ) SI_UNIT ( $, .RADIAN. ) );
#141 = DIRECTION ( 'NONE',  ( 1.000000000000000000, 0.000000000000000000, 0.000000000000000000 ) ) ;
#142 = CLOSED_SHELL ( 'NONE', ( #115, #134, #24, #32 ) ) ;
#143 = DIRECTION ( 'NONE',  ( 0.000000000000000000, 0.000000000000000000, 1.000000000000000000 ) ) ;
#144 = DATE_AND_TIME ( #158, #23 ) ;
#145 = PERSON_AND_ORGANIZATION ( #160, #33 ) ;
#146 = COORDINATED_UNIVERSAL_TIME_OFFSET ( 5, 0, .BEHIND. ) ;
#147 = AXIS2_PLACEMENT_3D ( 'NONE', #151, #56, #106 ) ;
#148 = COORDINATED_UNIVERSAL_TIME_OFFSET ( 5, 0, .BEHIND. ) ;
#149 = EDGE_CURVE ( 'NONE', #136, #2, #95, .T. ) ;
#150 = CC_DESIGN_APPROVAL ( #20, ( #73 ) ) ;
#151 = CARTESIAN_POINT ( 'NONE',  ( 0.000000000000000000, 0.000000000000000000, 1.000000000000000000 ) ) ;
#152 = CARTESIAN_POINT ( 'NONE',  ( 0.000000000000000000, 0.000000000000000000, 0.000000000000000000 ) ) ;
#153 = DIRECTION ( 'NONE',  ( 0.000000000000000000, 0.000000000000000000, 1.000000000000000000 ) ) ;
#154 = APPLICATION_CONTEXT ( 'configuration controlled 3d designs of mechanical parts and assemblies' ) ;
#155 = CC_DESIGN_PERSON_AND_ORGANIZATION_ASSIGNMENT ( #12, #171, ( #113 ) ) ;
#156 = PERSON_AND_ORGANIZATION ( #160, #33 ) ;
#157 = PERSON_AND_ORGANIZATION_ROLE ( 'creator' ) ;
#158 = CALENDAR_DATE ( 2022, 6, 4 ) ;
#159 = AXIS2_PLACEMENT_3D ( 'NONE', #5, #107, #84 ) ;
#160 = PERSON ( 'UNSPECIFIED', 'UNSPECIFIED', 'UNSPECIFIED', ('UNSPECIFIED'), ('UNSPECIFIED'), ('UNSPECIFIED') ) ;
#161 = CALENDAR_DATE ( 2022, 6, 4 ) ;
#162 = MANIFOLD_SOLID_BREP ( 'Boss-Extrude1', #142 ) ;
#163 = AXIS2_PLACEMENT_3D ( 'NONE', #37, #143, #141 ) ;
#164 = CC_DESIGN_DATE_AND_TIME_ASSIGNMENT ( #114, #27, ( #73 ) ) ;
#165 = AXIS2_PLACEMENT_3D ( 'NONE', #62, #110, #109 ) ;
#166 = DIRECTION ( 'NONE',  ( -1.000000000000000000, 0.000000000000000000, 0.000000000000000000 ) ) ;
#167 = PRODUCT_RELATED_PRODUCT_CATEGORY ( 'detail', '', ( #113 ) ) ;
#168 = APPROVAL_PERSON_ORGANIZATION ( #156, #118, #90 ) ;
#169 = DIRECTION ( 'NONE',  ( 0.000000000000000000, 0.000000000000000000, 1.000000000000000000 ) ) ;
#170 = CARTESIAN_POINT ( 'NONE',  ( -25.00000000000000000, 0.000000000000000000, 1.000000000000000000 ) ) ;
#171 = PERSON_AND_ORGANIZATION_ROLE ( 'design_owner' ) ;
#172 = CARTESIAN_POINT ( 'NONE',  ( 0.000000000000000000, 0.000000000000000000, 0.000000000000000000 ) ) ;
#173 = PERSON_AND_ORGANIZATION_ROLE ( 'classification_officer' ) ;
#174 = EDGE_CURVE ( 'NONE', #133, #136, #41, .T. ) ;
#175 = PERSON_AND_ORGANIZATION ( #160, #33 ) ;
ENDSEC;
END-ISO-10303-21;
