ISO-10303-21;
HEADER;
FILE_DESCRIPTION (( 'STEP AP203' ),
    '1' );
FILE_NAME ('Web Model 11878_11893.step',
    '2019-01-02T18:31:16',
    ( '' ),
    ( '' ),
    'SwSTEP 2.0',
    'SolidWorks 2016',
    '' );
FILE_SCHEMA (( 'CONFIG_CONTROL_DESIGN' ));
ENDSEC;

DATA;
#1 = DIRECTION ( 'NONE',  ( 0.0000000000000000000, 0.0000000000000000000, -1.000000000000000000 ) ) ;
#2 = DIRECTION ( 'NONE',  ( -0.7071067811865597900, 8.659560562354782500E-017, -0.7071067811865352500 ) ) ;
#3 = APPROVAL_PERSON_ORGANIZATION ( #13, #270, #178 ) ;
#4 = DIRECTION ( 'NONE',  ( -1.000000000000000000, 0.0000000000000000000, 0.0000000000000000000 ) ) ;
#5 = AXIS2_PLACEMENT_3D ( 'NONE', #35, #20, #77 ) ;
#6 = DIRECTION ( 'NONE',  ( 1.000000000000000000, -0.0000000000000000000, -0.0000000000000000000 ) ) ;
#7 = CALENDAR_DATE ( 2019, 2, 1 ) ;
#8 = AXIS2_PLACEMENT_3D ( 'NONE', #132, #192, #81 ) ;
#9 = DATE_TIME_ROLE ( 'creation_date' ) ;
#10 = LOCAL_TIME ( 13, 31, 16.00000000000000000, #179 ) ;
#11 = LINE ( 'NONE', #85, #70 ) ;
#12 = CC_DESIGN_PERSON_AND_ORGANIZATION_ASSIGNMENT ( #184, #134, ( #91 ) ) ;
#13 = PERSON_AND_ORGANIZATION ( #254, #249 ) ;
#14 = CC_DESIGN_APPROVAL ( #225, ( #205 ) ) ;
#15 = VERTEX_POINT ( 'NONE', #207 ) ;
#16 = CC_DESIGN_PERSON_AND_ORGANIZATION_ASSIGNMENT ( #164, #93, ( #118 ) ) ;
#17 = CARTESIAN_POINT ( 'NONE',  ( 2.450000000000003700, 0.0000000000000000000, 0.0000000000000000000 ) ) ;
#18 = DIRECTION ( 'NONE',  ( -1.000000000000000000, -0.0000000000000000000, -0.0000000000000000000 ) ) ;
#19 = DESIGN_CONTEXT ( 'detailed design', #69, 'design' ) ;
#20 = DIRECTION ( 'NONE',  ( 1.000000000000000000, 0.0000000000000000000, 0.0000000000000000000 ) ) ;
#21 = ORIENTED_EDGE ( 'NONE', *, *, #71, .F. ) ;
#22 = FACE_OUTER_BOUND ( 'NONE', #229, .T. ) ;
#23 = DIRECTION ( 'NONE',  ( 0.0000000000000000000, 0.0000000000000000000, -1.000000000000000000 ) ) ;
#24 = DIRECTION ( 'NONE',  ( 0.7071067811865597900, 0.0000000000000000000, -0.7071067811865352500 ) ) ;
#25 = DIRECTION ( 'NONE',  ( -1.000000000000000000, -0.0000000000000000000, -0.0000000000000000000 ) ) ;
#26 = DATE_TIME_ROLE ( 'classification_date' ) ;
#27 = EDGE_LOOP ( 'NONE', ( #247, #107, #50, #228 ) ) ;
#28 = PERSON_AND_ORGANIZATION ( #254, #249 ) ;
#29 = CC_DESIGN_DATE_AND_TIME_ASSIGNMENT ( #87, #9, ( #118 ) ) ;
#30 = VERTEX_POINT ( 'NONE', #145 ) ;
#31 = CIRCLE ( 'NONE', #109, 12.50000000000000000 ) ;
#32 = EDGE_LOOP ( 'NONE', ( #141, #65 ) ) ;
#33 = EDGE_CURVE ( 'NONE', #172, #95, #226, .T. ) ;
#34 = LINE ( 'NONE', #41, #162 ) ;
#35 = CARTESIAN_POINT ( 'NONE',  ( 2.500000000000000000, 0.0000000000000000000, 0.0000000000000000000 ) ) ;
#36 = CARTESIAN_POINT ( 'NONE',  ( 2.500000000000000000, 1.527746881936323600E-015, -12.45000000000000600 ) ) ;
#37 = CARTESIAN_POINT ( 'NONE',  ( -2.450000000000000200, 0.0000000000000000000, -12.50000000000000000 ) ) ;
#38 = DATE_AND_TIME ( #7, #114 ) ;
#39 = CC_DESIGN_SECURITY_CLASSIFICATION ( #205, ( #42 ) ) ;
#40 =( NAMED_UNIT ( * ) SI_UNIT ( $, .STERADIAN. ) SOLID_ANGLE_UNIT ( ) );
#41 = CARTESIAN_POINT ( 'NONE',  ( 2.500000000000000000, 1.530808498934191500E-015, -12.50000000000000000 ) ) ;
#42 = PRODUCT_DEFINITION_FORMATION_WITH_SPECIFIED_SOURCE ( 'ANY', '', #91, .NOT_KNOWN. ) ;
#43 = CARTESIAN_POINT ( 'NONE',  ( -2.450000000000000200, 0.0000000000000000000, 0.0000000000000000000 ) ) ;
#44 = CONICAL_SURFACE ( 'NONE', #231, 12.45000000000000600, 0.7853981633974309600 ) ;
#45 = ADVANCED_FACE ( 'NONE', ( #73 ), #57, .T. ) ;
#46 = APPLICATION_PROTOCOL_DEFINITION ( 'international standard', 'config_control_design', 1994, #69 ) ;
#47 = CALENDAR_DATE ( 2019, 2, 1 ) ;
#48 = ORIENTED_EDGE ( 'NONE', *, *, #127, .T. ) ;
#49 = PERSON_AND_ORGANIZATION ( #254, #249 ) ;
#50 = ORIENTED_EDGE ( 'NONE', *, *, #208, .T. ) ;
#51 = APPROVAL_PERSON_ORGANIZATION ( #234, #84, #159 ) ;
#52 = EDGE_LOOP ( 'NONE', ( #74, #146, #170, #188 ) ) ;
#53 = DIRECTION ( 'NONE',  ( 1.000000000000000000, -0.0000000000000000000, -0.0000000000000000000 ) ) ;
#54 = ADVANCED_BREP_SHAPE_REPRESENTATION ( 'Web Model 11878_11893', ( #97, #133 ), #214 ) ;
#55 = ORIENTED_EDGE ( 'NONE', *, *, #135, .T. ) ;
#56 = DIRECTION ( 'NONE',  ( 0.0000000000000000000, 0.0000000000000000000, 1.000000000000000000 ) ) ;
#57 = PLANE ( 'NONE',  #5 ) ;
#58 = UNCERTAINTY_MEASURE_WITH_UNIT (LENGTH_MEASURE( 1.000000000000000100E-005 ), #61, 'distance_accuracy_value', 'NONE');
#59 = LINE ( 'NONE', #190, #227 ) ;
#60 = PLANE ( 'NONE',  #165 ) ;
#61 =( LENGTH_UNIT ( ) NAMED_UNIT ( * ) SI_UNIT ( .MILLI., .METRE. ) );
#62 = AXIS2_PLACEMENT_3D ( 'NONE', #187, #253, #103 ) ;
#63 = CARTESIAN_POINT ( 'NONE',  ( 2.500000000000000000, 0.0000000000000000000, 0.0000000000000000000 ) ) ;
#64 = DIRECTION ( 'NONE',  ( 0.0000000000000000000, 0.0000000000000000000, -1.000000000000000000 ) ) ;
#65 = ORIENTED_EDGE ( 'NONE', *, *, #119, .T. ) ;
#66 = LINE ( 'NONE', #191, #180 ) ;
#67 = ADVANCED_FACE ( 'NONE', ( #238 ), #161, .T. ) ;
#68 = AXIS2_PLACEMENT_3D ( 'NONE', #217, #241, #108 ) ;
#69 = APPLICATION_CONTEXT ( 'configuration controlled 3d designs of mechanical parts and assemblies' ) ;
#70 = VECTOR ( 'NONE', #25, 1000.000000000000000 ) ;
#71 = EDGE_CURVE ( 'NONE', #181, #251, #121, .T. ) ;
#72 = CC_DESIGN_PERSON_AND_ORGANIZATION_ASSIGNMENT ( #28, #197, ( #205 ) ) ;
#73 = FACE_OUTER_BOUND ( 'NONE', #32, .T. ) ;
#74 = ORIENTED_EDGE ( 'NONE', *, *, #88, .F. ) ;
#75 = CIRCLE ( 'NONE', #203, 12.50000000000000000 ) ;
#76 = ORIENTED_EDGE ( 'NONE', *, *, #79, .F. ) ;
#77 = DIRECTION ( 'NONE',  ( 0.0000000000000000000, 0.0000000000000000000, -1.000000000000000000 ) ) ;
#78 = CARTESIAN_POINT ( 'NONE',  ( 2.500000000000000000, 0.0000000000000000000, 0.0000000000000000000 ) ) ;
#79 = EDGE_CURVE ( 'NONE', #156, #15, #273, .T. ) ;
#80 = ORIENTED_EDGE ( 'NONE', *, *, #208, .F. ) ;
#81 = DIRECTION ( 'NONE',  ( 0.0000000000000000000, 0.0000000000000000000, -1.000000000000000000 ) ) ;
#82 = CARTESIAN_POINT ( 'NONE',  ( 2.450000000000003700, 1.530808498934191500E-015, -12.50000000000000000 ) ) ;
#83 = ADVANCED_FACE ( 'NONE', ( #182 ), #171, .T. ) ;
#84 = APPROVAL ( #246, 'UNSPECIFIED' ) ;
#85 = CARTESIAN_POINT ( 'NONE',  ( 2.500000000000000000, 0.0000000000000000000, 12.50000000000000000 ) ) ;
#86 = CLOSED_SHELL ( 'NONE', ( #222, #245, #216, #67, #45, #158, #83, #138 ) ) ;
#87 = DATE_AND_TIME ( #47, #268 ) ;
#88 = EDGE_CURVE ( 'NONE', #95, #150, #59, .T. ) ;
#89 = SECURITY_CLASSIFICATION_LEVEL ( 'unclassified' ) ;
#90 = PERSON_AND_ORGANIZATION_ROLE ( 'design_supplier' ) ;
#91 = PRODUCT ( 'Web Model 11878_11893', 'Web Model 11878_11893', '', ( #115 ) ) ;
#92 = APPROVAL_DATE_TIME ( #155, #225 ) ;
#93 = PERSON_AND_ORGANIZATION_ROLE ( 'creator' ) ;
#94 = AXIS2_PLACEMENT_3D ( 'NONE', #169, #209, #230 ) ;
#95 = VERTEX_POINT ( 'NONE', #36 ) ;
#96 = APPROVAL_DATE_TIME ( #38, #270 ) ;
#97 = MANIFOLD_SOLID_BREP ( 'Chamfer1', #86 ) ;
#98 = EDGE_CURVE ( 'NONE', #150, #30, #75, .T. ) ;
#99 = CC_DESIGN_APPROVAL ( #84, ( #42 ) ) ;
#100 = FACE_OUTER_BOUND ( 'NONE', #201, .T. ) ;
#101 = DIRECTION ( 'NONE',  ( 0.0000000000000000000, 0.0000000000000000000, -1.000000000000000000 ) ) ;
#102 = DIRECTION ( 'NONE',  ( 1.000000000000000000, 0.0000000000000000000, 0.0000000000000000000 ) ) ;
#103 = DIRECTION ( 'NONE',  ( 0.0000000000000000000, 0.0000000000000000000, -1.000000000000000000 ) ) ;
#104 = DIRECTION ( 'NONE',  ( 0.0000000000000000000, 0.0000000000000000000, -1.000000000000000000 ) ) ;
#105 = ORIENTED_EDGE ( 'NONE', *, *, #135, .F. ) ;
#106 = FACE_OUTER_BOUND ( 'NONE', #139, .T. ) ;
#107 = ORIENTED_EDGE ( 'NONE', *, *, #98, .T. ) ;
#108 = DIRECTION ( 'NONE',  ( 0.0000000000000000000, 0.0000000000000000000, 1.000000000000000000 ) ) ;
#109 = AXIS2_PLACEMENT_3D ( 'NONE', #17, #166, #196 ) ;
#110 = DIRECTION ( 'NONE',  ( 0.0000000000000000000, 0.0000000000000000000, -1.000000000000000000 ) ) ;
#111 = APPLICATION_CONTEXT ( 'configuration controlled 3d designs of mechanical parts and assemblies' ) ;
#112 = APPROVAL_PERSON_ORGANIZATION ( #49, #225, #242 ) ;
#113 = ORIENTED_EDGE ( 'NONE', *, *, #267, .F. ) ;
#114 = LOCAL_TIME ( 13, 31, 16.00000000000000000, #157 ) ;
#115 = MECHANICAL_CONTEXT ( 'NONE', #111, 'mechanical' ) ;
#116 = APPROVAL_STATUS ( 'not_yet_approved' ) ;
#117 = AXIS2_PLACEMENT_3D ( 'NONE', #43, #6, #110 ) ;
#118 = PRODUCT_DEFINITION ( 'UNKNOWN', '', #42, #19 ) ;
#119 = EDGE_CURVE ( 'NONE', #95, #172, #213, .T. ) ;
#120 = CALENDAR_DATE ( 2019, 2, 1 ) ;
#121 = CIRCLE ( 'NONE', #62, 12.50000000000000000 ) ;
#122 = LOCAL_TIME ( 13, 31, 16.00000000000000000, #144 ) ;
#123 = VECTOR ( 'NONE', #149, 1000.000000000000000 ) ;
#124 = CARTESIAN_POINT ( 'NONE',  ( 2.500000000000000000, 0.0000000000000000000, 0.0000000000000000000 ) ) ;
#125 = PRODUCT_RELATED_PRODUCT_CATEGORY ( 'detail', '', ( #91 ) ) ;
#126 = CARTESIAN_POINT ( 'NONE',  ( 2.500000000000000000, 0.0000000000000000000, 0.0000000000000000000 ) ) ;
#127 = EDGE_CURVE ( 'NONE', #30, #150, #31, .T. ) ;
#128 = PERSON_AND_ORGANIZATION ( #254, #249 ) ;
#129 = CC_DESIGN_APPROVAL ( #270, ( #118 ) ) ;
#130 = CARTESIAN_POINT ( 'NONE',  ( 2.500000000000000000, 0.0000000000000000000, 12.45000000000000600 ) ) ;
#131 = DIRECTION ( 'NONE',  ( 0.0000000000000000000, 0.0000000000000000000, 1.000000000000000000 ) ) ;
#132 = CARTESIAN_POINT ( 'NONE',  ( -2.500000000000000000, 0.0000000000000000000, 0.0000000000000000000 ) ) ;
#133 = AXIS2_PLACEMENT_3D ( 'NONE', #193, #154, #215 ) ;
#134 = PERSON_AND_ORGANIZATION_ROLE ( 'design_owner' ) ;
#135 = EDGE_CURVE ( 'NONE', #15, #156, #176, .T. ) ;
#136 = PERSON_AND_ORGANIZATION ( #254, #249 ) ;
#137 = LOCAL_TIME ( 13, 31, 16.00000000000000000, #198 ) ;
#138 = ADVANCED_FACE ( 'NONE', ( #106 ), #266, .T. ) ;
#139 = EDGE_LOOP ( 'NONE', ( #248, #105, #263, #262 ) ) ;
#140 = ORIENTED_EDGE ( 'NONE', *, *, #177, .F. ) ;
#141 = ORIENTED_EDGE ( 'NONE', *, *, #33, .T. ) ;
#142 = FACE_OUTER_BOUND ( 'NONE', #223, .T. ) ;
#143 = AXIS2_PLACEMENT_3D ( 'NONE', #168, #211, #1 ) ;
#144 = COORDINATED_UNIVERSAL_TIME_OFFSET ( 5, 0, .BEHIND. ) ;
#145 = CARTESIAN_POINT ( 'NONE',  ( 2.450000000000003700, 0.0000000000000000000, 12.50000000000000000 ) ) ;
#146 = ORIENTED_EDGE ( 'NONE', *, *, #33, .F. ) ;
#147 = EDGE_CURVE ( 'NONE', #156, #251, #66, .T. ) ;
#148 = CARTESIAN_POINT ( 'NONE',  ( -2.450000000000000200, 0.0000000000000000000, 0.0000000000000000000 ) ) ;
#149 = DIRECTION ( 'NONE',  ( -0.7071067811865597900, 0.0000000000000000000, 0.7071067811865352500 ) ) ;
#150 = VERTEX_POINT ( 'NONE', #82 ) ;
#151 = CALENDAR_DATE ( 2019, 2, 1 ) ;
#152 = EDGE_LOOP ( 'NONE', ( #48, #275, #195, #80 ) ) ;
#153 = CARTESIAN_POINT ( 'NONE',  ( 2.500000000000000000, 0.0000000000000000000, 12.45000000000000600 ) ) ;
#154 = DIRECTION ( 'NONE',  ( 0.0000000000000000000, 0.0000000000000000000, 1.000000000000000000 ) ) ;
#155 = DATE_AND_TIME ( #243, #122 ) ;
#156 = VERTEX_POINT ( 'NONE', #174 ) ;
#157 = COORDINATED_UNIVERSAL_TIME_OFFSET ( 5, 0, .BEHIND. ) ;
#158 = ADVANCED_FACE ( 'NONE', ( #22 ), #60, .F. ) ;
#159 = APPROVAL_ROLE ( '' ) ;
#160 = LINE ( 'NONE', #37, #244 ) ;
#161 = CYLINDRICAL_SURFACE ( 'NONE', #252, 12.50000000000000000 ) ;
#162 = VECTOR ( 'NONE', #240, 1000.000000000000000 ) ;
#163 = PRODUCT_DEFINITION_SHAPE ( 'NONE', 'NONE',  #118 ) ;
#164 = PERSON_AND_ORGANIZATION ( #254, #249 ) ;
#165 = AXIS2_PLACEMENT_3D ( 'NONE', #235, #236, #64 ) ;
#166 = DIRECTION ( 'NONE',  ( -1.000000000000000000, 0.0000000000000000000, 0.0000000000000000000 ) ) ;
#167 = SHAPE_DEFINITION_REPRESENTATION ( #163, #54 ) ;
#168 = CARTESIAN_POINT ( 'NONE',  ( -2.500000000000000000, 0.0000000000000000000, 0.0000000000000000000 ) ) ;
#169 = CARTESIAN_POINT ( 'NONE',  ( 2.500000000000000000, 0.0000000000000000000, 0.0000000000000000000 ) ) ;
#170 = ORIENTED_EDGE ( 'NONE', *, *, #177, .T. ) ;
#171 = CONICAL_SURFACE ( 'NONE', #200, 12.45000000000000600, 0.7853981633974309600 ) ;
#172 = VERTEX_POINT ( 'NONE', #153 ) ;
#173 = AXIS2_PLACEMENT_3D ( 'NONE', #261, #218, #23 ) ;
#174 = CARTESIAN_POINT ( 'NONE',  ( -2.500000000000000000, 1.527746881936323400E-015, 12.45000000000000300 ) ) ;
#175 =( NAMED_UNIT ( * ) PLANE_ANGLE_UNIT ( ) SI_UNIT ( $, .RADIAN. ) );
#176 = CIRCLE ( 'NONE', #8, 12.45000000000000300 ) ;
#177 = EDGE_CURVE ( 'NONE', #172, #30, #183, .T. ) ;
#178 = APPROVAL_ROLE ( '' ) ;
#179 = COORDINATED_UNIVERSAL_TIME_OFFSET ( 5, 0, .BEHIND. ) ;
#180 = VECTOR ( 'NONE', #237, 1000.000000000000000 ) ;
#181 = VERTEX_POINT ( 'NONE', #212 ) ;
#182 = FACE_OUTER_BOUND ( 'NONE', #52, .T. ) ;
#183 = LINE ( 'NONE', #130, #123 ) ;
#184 = PERSON_AND_ORGANIZATION ( #254, #249 ) ;
#185 = ORIENTED_EDGE ( 'NONE', *, *, #88, .T. ) ;
#186 = CC_DESIGN_PERSON_AND_ORGANIZATION_ASSIGNMENT ( #136, #90, ( #42 ) ) ;
#187 = CARTESIAN_POINT ( 'NONE',  ( -2.450000000000000200, 0.0000000000000000000, 0.0000000000000000000 ) ) ;
#188 = ORIENTED_EDGE ( 'NONE', *, *, #98, .F. ) ;
#189 = COORDINATED_UNIVERSAL_TIME_OFFSET ( 5, 0, .BEHIND. ) ;
#190 = CARTESIAN_POINT ( 'NONE',  ( 2.500000000000000000, 1.524685264938455400E-015, -12.45000000000000600 ) ) ;
#191 = CARTESIAN_POINT ( 'NONE',  ( -2.450000000000000200, 1.530808498934191500E-015, 12.50000000000000000 ) ) ;
#192 = DIRECTION ( 'NONE',  ( -1.000000000000000000, -0.0000000000000000000, -0.0000000000000000000 ) ) ;
#193 = CARTESIAN_POINT ( 'NONE',  ( 0.0000000000000000000, 0.0000000000000000000, 0.0000000000000000000 ) ) ;
#194 = DATE_AND_TIME ( #151, #10 ) ;
#195 = ORIENTED_EDGE ( 'NONE', *, *, #71, .T. ) ;
#196 = DIRECTION ( 'NONE',  ( 0.0000000000000000000, 0.0000000000000000000, -1.000000000000000000 ) ) ;
#197 = PERSON_AND_ORGANIZATION_ROLE ( 'classification_officer' ) ;
#198 = COORDINATED_UNIVERSAL_TIME_OFFSET ( 5, 0, .BEHIND. ) ;
#199 = CC_DESIGN_DATE_AND_TIME_ASSIGNMENT ( #194, #26, ( #205 ) ) ;
#200 = AXIS2_PLACEMENT_3D ( 'NONE', #78, #232, #259 ) ;
#201 = EDGE_LOOP ( 'NONE', ( #239, #185, #255, #140 ) ) ;
#202 = ORIENTED_EDGE ( 'NONE', *, *, #79, .T. ) ;
#203 = AXIS2_PLACEMENT_3D ( 'NONE', #210, #233, #101 ) ;
#204 = CIRCLE ( 'NONE', #173, 12.50000000000000000 ) ;
#205 = SECURITY_CLASSIFICATION ( '', '', #89 ) ;
#206 = APPROVAL_DATE_TIME ( #272, #84 ) ;
#207 = CARTESIAN_POINT ( 'NONE',  ( -2.500000000000000000, 0.0000000000000000000, -12.45000000000000300 ) ) ;
#208 = EDGE_CURVE ( 'NONE', #30, #251, #11, .T. ) ;
#209 = DIRECTION ( 'NONE',  ( 1.000000000000000000, 0.0000000000000000000, 0.0000000000000000000 ) ) ;
#210 = CARTESIAN_POINT ( 'NONE',  ( 2.450000000000003700, 0.0000000000000000000, 0.0000000000000000000 ) ) ;
#211 = DIRECTION ( 'NONE',  ( -1.000000000000000000, -0.0000000000000000000, -0.0000000000000000000 ) ) ;
#212 = CARTESIAN_POINT ( 'NONE',  ( -2.450000000000000200, 1.530808498934191500E-015, -12.50000000000000000 ) ) ;
#213 = CIRCLE ( 'NONE', #265, 12.45000000000000600 ) ;
#214 =( GEOMETRIC_REPRESENTATION_CONTEXT ( 3 ) GLOBAL_UNCERTAINTY_ASSIGNED_CONTEXT ( ( #58 ) ) GLOBAL_UNIT_ASSIGNED_CONTEXT ( ( #61, #175, #40 ) ) REPRESENTATION_CONTEXT ( 'NONE', 'WORKASPACE' ) );
#215 = DIRECTION ( 'NONE',  ( 1.000000000000000000, 0.0000000000000000000, 0.0000000000000000000 ) ) ;
#216 = ADVANCED_FACE ( 'NONE', ( #219 ), #256, .T. ) ;
#217 = CARTESIAN_POINT ( 'NONE',  ( 2.500000000000000000, 0.0000000000000000000, 0.0000000000000000000 ) ) ;
#218 = DIRECTION ( 'NONE',  ( 1.000000000000000000, -0.0000000000000000000, -0.0000000000000000000 ) ) ;
#219 = FACE_OUTER_BOUND ( 'NONE', #152, .T. ) ;
#220 = AXIS2_PLACEMENT_3D ( 'NONE', #148, #53, #104 ) ;
#221 = PERSON_AND_ORGANIZATION_ROLE ( 'creator' ) ;
#222 = ADVANCED_FACE ( 'NONE', ( #142 ), #271, .T. ) ;
#223 = EDGE_LOOP ( 'NONE', ( #76, #250, #21, #113 ) ) ;
#224 = EDGE_CURVE ( 'NONE', #251, #181, #204, .T. ) ;
#225 = APPROVAL ( #116, 'UNSPECIFIED' ) ;
#226 = CIRCLE ( 'NONE', #94, 12.45000000000000600 ) ;
#227 = VECTOR ( 'NONE', #2, 1000.000000000000000 ) ;
#228 = ORIENTED_EDGE ( 'NONE', *, *, #224, .T. ) ;
#229 = EDGE_LOOP ( 'NONE', ( #55, #202 ) ) ;
#230 = DIRECTION ( 'NONE',  ( 0.0000000000000000000, 0.0000000000000000000, -1.000000000000000000 ) ) ;
#231 = AXIS2_PLACEMENT_3D ( 'NONE', #63, #4, #131 ) ;
#232 = DIRECTION ( 'NONE',  ( -1.000000000000000000, 0.0000000000000000000, 0.0000000000000000000 ) ) ;
#233 = DIRECTION ( 'NONE',  ( -1.000000000000000000, 0.0000000000000000000, 0.0000000000000000000 ) ) ;
#234 = PERSON_AND_ORGANIZATION ( #254, #249 ) ;
#235 = CARTESIAN_POINT ( 'NONE',  ( -2.500000000000000000, 0.0000000000000000000, 0.0000000000000000000 ) ) ;
#236 = DIRECTION ( 'NONE',  ( 1.000000000000000000, 0.0000000000000000000, 0.0000000000000000000 ) ) ;
#237 = DIRECTION ( 'NONE',  ( 0.7071067811865597900, 8.659560562354782500E-017, 0.7071067811865352500 ) ) ;
#238 = FACE_OUTER_BOUND ( 'NONE', #27, .T. ) ;
#239 = ORIENTED_EDGE ( 'NONE', *, *, #119, .F. ) ;
#240 = DIRECTION ( 'NONE',  ( -1.000000000000000000, -0.0000000000000000000, -0.0000000000000000000 ) ) ;
#241 = DIRECTION ( 'NONE',  ( -1.000000000000000000, -0.0000000000000000000, -0.0000000000000000000 ) ) ;
#242 = APPROVAL_ROLE ( '' ) ;
#243 = CALENDAR_DATE ( 2019, 2, 1 ) ;
#244 = VECTOR ( 'NONE', #24, 1000.000000000000000 ) ;
#245 = ADVANCED_FACE ( 'NONE', ( #100 ), #44, .T. ) ;
#246 = APPROVAL_STATUS ( 'not_yet_approved' ) ;
#247 = ORIENTED_EDGE ( 'NONE', *, *, #274, .F. ) ;
#248 = ORIENTED_EDGE ( 'NONE', *, *, #147, .F. ) ;
#249 = ORGANIZATION ( 'UNSPECIFIED', 'UNSPECIFIED', '' ) ;
#250 = ORIENTED_EDGE ( 'NONE', *, *, #147, .T. ) ;
#251 = VERTEX_POINT ( 'NONE', #260 ) ;
#252 = AXIS2_PLACEMENT_3D ( 'NONE', #124, #18, #56 ) ;
#253 = DIRECTION ( 'NONE',  ( 1.000000000000000000, -0.0000000000000000000, -0.0000000000000000000 ) ) ;
#254 = PERSON ( 'UNSPECIFIED', 'UNSPECIFIED', 'UNSPECIFIED', ('UNSPECIFIED'), ('UNSPECIFIED'), ('UNSPECIFIED') ) ;
#255 = ORIENTED_EDGE ( 'NONE', *, *, #127, .F. ) ;
#256 = CYLINDRICAL_SURFACE ( 'NONE', #68, 12.50000000000000000 ) ;
#257 = DIRECTION ( 'NONE',  ( 0.0000000000000000000, 0.0000000000000000000, -1.000000000000000000 ) ) ;
#258 = CC_DESIGN_PERSON_AND_ORGANIZATION_ASSIGNMENT ( #128, #221, ( #42 ) ) ;
#259 = DIRECTION ( 'NONE',  ( 0.0000000000000000000, 0.0000000000000000000, 1.000000000000000000 ) ) ;
#260 = CARTESIAN_POINT ( 'NONE',  ( -2.450000000000000200, 0.0000000000000000000, 12.50000000000000000 ) ) ;
#261 = CARTESIAN_POINT ( 'NONE',  ( -2.450000000000000200, 0.0000000000000000000, 0.0000000000000000000 ) ) ;
#262 = ORIENTED_EDGE ( 'NONE', *, *, #224, .F. ) ;
#263 = ORIENTED_EDGE ( 'NONE', *, *, #267, .T. ) ;
#264 = APPLICATION_PROTOCOL_DEFINITION ( 'international standard', 'config_control_design', 1994, #111 ) ;
#265 = AXIS2_PLACEMENT_3D ( 'NONE', #126, #102, #257 ) ;
#266 = CONICAL_SURFACE ( 'NONE', #220, 12.50000000000000000, 0.7853981633974309600 ) ;
#267 = EDGE_CURVE ( 'NONE', #15, #181, #160, .T. ) ;
#268 = LOCAL_TIME ( 13, 31, 16.00000000000000000, #189 ) ;
#269 = APPROVAL_STATUS ( 'not_yet_approved' ) ;
#270 = APPROVAL ( #269, 'UNSPECIFIED' ) ;
#271 = CONICAL_SURFACE ( 'NONE', #117, 12.50000000000000000, 0.7853981633974309600 ) ;
#272 = DATE_AND_TIME ( #120, #137 ) ;
#273 = CIRCLE ( 'NONE', #143, 12.45000000000000300 ) ;
#274 = EDGE_CURVE ( 'NONE', #150, #181, #34, .T. ) ;
#275 = ORIENTED_EDGE ( 'NONE', *, *, #274, .T. ) ;
ENDSEC;
END-ISO-10303-21;
