ISO-10303-21;
HEADER;
FILE_DESCRIPTION (( 'STEP AP203' ),
    '1' );
FILE_NAME ('25mm BEAMSPLITTER CUBE TS_35963.step',
    '2017-07-18T13:27:16',
    ( '' ),
    ( '' ),
    'SwSTEP 2.0',
    'SolidWorks 2016',
    '' );
FILE_SCHEMA (( 'CONFIG_CONTROL_DESIGN' ));
ENDSEC;

DATA;
#1 = CC_DESIGN_PERSON_AND_ORGANIZATION_ASSIGNMENT ( #331, #261, ( #309 ) ) ;
#2 = COORDINATED_UNIVERSAL_TIME_OFFSET ( 5, 0, .BEHIND. ) ;
#3 = ORIENTED_EDGE ( 'NONE', *, *, #12, .T. ) ;
#4 = PLANE ( 'NONE',  #333 ) ;
#5 = DIRECTION ( 'NONE',  ( 0.0000000000000000000, 1.000000000000000000, -6.123233995736767300E-017 ) ) ;
#6 = CC_DESIGN_APPROVAL ( #353, ( #313 ) ) ;
#7 = PERSON_AND_ORGANIZATION ( #163, #274 ) ;
#8 =( LENGTH_UNIT ( ) NAMED_UNIT ( * ) SI_UNIT ( .MILLI., .METRE. ) );
#9 = AXIS2_PLACEMENT_3D ( 'NONE', #250, #282, #120 ) ;
#10 = PERSON_AND_ORGANIZATION_ROLE ( 'design_owner' ) ;
#11 = DATE_TIME_ROLE ( 'classification_date' ) ;
#12 = EDGE_CURVE ( 'NONE', #318, #178, #279, .T. ) ;
#13 = DATE_AND_TIME ( #81, #161 ) ;
#14 = ORIENTED_EDGE ( 'NONE', *, *, #83, .T. ) ;
#15 = APPROVAL_ROLE ( '' ) ;
#16 = PERSON_AND_ORGANIZATION_ROLE ( 'classification_officer' ) ;
#17 = APPROVAL ( #180, 'UNSPECIFIED' ) ;
#18 = PERSON_AND_ORGANIZATION ( #163, #274 ) ;
#19 = PERSON_AND_ORGANIZATION ( #163, #274 ) ;
#20 = EDGE_LOOP ( 'NONE', ( #239, #14, #327 ) ) ;
#21 = CC_DESIGN_DATE_AND_TIME_ASSIGNMENT ( #31, #89, ( #309 ) ) ;
#22 = CALENDAR_DATE ( 2017, 18, 7 ) ;
#23 = CC_DESIGN_DATE_AND_TIME_ASSIGNMENT ( #43, #96, ( #313 ) ) ;
#24 = PERSON_AND_ORGANIZATION ( #163, #274 ) ;
#25 = ORIENTED_EDGE ( 'NONE', *, *, #66, .F. ) ;
#26 = EDGE_CURVE ( 'NONE', #143, #318, #114, .T. ) ;
#27 = CC_DESIGN_APPROVAL ( #17, ( #358 ) ) ;
#28 = DIRECTION ( 'NONE',  ( 0.0000000000000000000, -0.7071067811865512400, -0.7071067811865439100 ) ) ;
#29 = APPROVAL_DATE_TIME ( #106, #353 ) ;
#30 = VECTOR ( 'NONE', #311, 1000.000000000000000 ) ;
#31 = DATE_AND_TIME ( #110, #185 ) ;
#32 = CARTESIAN_POINT ( 'NONE',  ( 12.50000000000000000, -2.164890140588744600E-015, -17.67766952966377800 ) ) ;
#33 = DIRECTION ( 'NONE',  ( 0.0000000000000000000, 0.0000000000000000000, 1.000000000000000000 ) ) ;
#34 =( NAMED_UNIT ( * ) SI_UNIT ( $, .STERADIAN. ) SOLID_ANGLE_UNIT ( ) );
#35 = EDGE_CURVE ( 'NONE', #178, #162, #135, .T. ) ;
#36 = APPLICATION_PROTOCOL_DEFINITION ( 'international standard', 'config_control_design', 1994, #207 ) ;
#37 = CALENDAR_DATE ( 2017, 18, 7 ) ;
#38 = EDGE_LOOP ( 'NONE', ( #216, #248, #92, #3 ) ) ;
#39 = APPROVAL_ROLE ( '' ) ;
#40 = PRODUCT_DEFINITION_FORMATION_WITH_SPECIFIED_SOURCE ( 'ANY', '', #136, .NOT_KNOWN. ) ;
#41 = PERSON_AND_ORGANIZATION_ROLE ( 'design_supplier' ) ;
#42 =( REPRESENTATION_RELATIONSHIP ('NONE','NONE', #141, #139 ) REPRESENTATION_RELATIONSHIP_WITH_TRANSFORMATION ( #127 )SHAPE_REPRESENTATION_RELATIONSHIP( ) );
#43 = DATE_AND_TIME ( #117, #191 ) ;
#44 = LINE ( 'NONE', #205, #267 ) ;
#45 = APPROVAL_DATE_TIME ( #119, #328 ) ;
#46 = CC_DESIGN_PERSON_AND_ORGANIZATION_ASSIGNMENT ( #243, #293, ( #313 ) ) ;
#47 = DATE_AND_TIME ( #122, #194 ) ;
#48 = AXIS2_PLACEMENT_3D ( 'NONE', #171, #5, #202 ) ;
#49 = EDGE_CURVE ( 'NONE', #143, #260, #351, .T. ) ;
#50 = VECTOR ( 'NONE', #339, 1000.000000000000000 ) ;
#51 = APPROVAL_PERSON_ORGANIZATION ( #129, #328, #64 ) ;
#52 = CC_DESIGN_PERSON_AND_ORGANIZATION_ASSIGNMENT ( #176, #209, ( #358 ) ) ;
#53 = APPROVAL_DATE_TIME ( #132, #280 ) ;
#54 = APPROVAL ( #287, 'UNSPECIFIED' ) ;
#55 = ORGANIZATION ( 'NAUO-ORG1', 'UNSPECIFIED', 'UNSPECIFIED' ) ;
#56 = VECTOR ( 'NONE', #159, 999.9999999999998900 ) ;
#57 = DIRECTION ( 'NONE',  ( 0.0000000000000000000, 0.7071067811865439100, 0.7071067811865512400 ) ) ;
#58 = SHAPE_DEFINITION_REPRESENTATION ( #355, #141 ) ;
#59 = CARTESIAN_POINT ( 'NONE',  ( 12.50000000000000000, 0.0000000000000000000, 17.67766952966377800 ) ) ;
#60 = CARTESIAN_POINT ( 'NONE',  ( 0.0000000000000000000, 0.0000000000000000000, 0.0000000000000000000 ) ) ;
#61 = APPROVAL_PERSON_ORGANIZATION ( #138, #280, #319 ) ;
#62 = DIRECTION ( 'NONE',  ( 0.0000000000000000000, 0.0000000000000000000, 1.000000000000000000 ) ) ;
#63 =( GEOMETRIC_REPRESENTATION_CONTEXT ( 3 ) GLOBAL_UNCERTAINTY_ASSIGNED_CONTEXT ( ( #75 ) ) GLOBAL_UNIT_ASSIGNED_CONTEXT ( ( #147, #341, #173 ) ) REPRESENTATION_CONTEXT ( 'NONE', 'WORKASPACE' ) );
#64 = APPROVAL_ROLE ( '' ) ;
#65 = MECHANICAL_CONTEXT ( 'NONE', #286, 'mechanical' ) ;
#66 = EDGE_CURVE ( 'NONE', #260, #178, #357, .T. ) ;
#67 = PERSON_AND_ORGANIZATION_ROLE ( 'classification_officer' ) ;
#68 = COORDINATED_UNIVERSAL_TIME_OFFSET ( 5, 0, .BEHIND. ) ;
#69 = ORIENTED_EDGE ( 'NONE', *, *, #35, .F. ) ;
#70 = APPROVAL_STATUS ( 'not_yet_approved' ) ;
#71 = CC_DESIGN_PERSON_AND_ORGANIZATION_ASSIGNMENT ( #102, #41, ( #358 ) ) ;
#72 = ADVANCED_FACE ( 'NONE', ( #198 ), #111, .F. ) ;
#73 = CALENDAR_DATE ( 2017, 18, 7 ) ;
#74 = EDGE_CURVE ( 'NONE', #82, #162, #118, .T. ) ;
#75 = UNCERTAINTY_MEASURE_WITH_UNIT (LENGTH_MEASURE( 1.000000000000000100E-005 ), #147, 'distance_accuracy_value', 'NONE');
#76 = CC_DESIGN_APPROVAL ( #54, ( #40 ) ) ;
#77 = EDGE_LOOP ( 'NONE', ( #25, #233, #69 ) ) ;
#78 = DATE_AND_TIME ( #158, #225 ) ;
#79 = DIRECTION ( 'NONE',  ( 0.0000000000000000000, 0.0000000000000000000, 1.000000000000000000 ) ) ;
#80 = AXIS2_PLACEMENT_3D ( 'NONE', #32, #86, #283 ) ;
#81 = CALENDAR_DATE ( 2017, 18, 7 ) ;
#82 = VERTEX_POINT ( 'NONE', #296 ) ;
#83 = EDGE_CURVE ( 'NONE', #318, #82, #330, .T. ) ;
#84 = SECURITY_CLASSIFICATION ( '', '', #234 ) ;
#85 = PLANE ( 'NONE',  #48 ) ;
#86 = DIRECTION ( 'NONE',  ( 0.0000000000000000000, -0.7071067811865512400, 0.7071067811865439100 ) ) ;
#87 = PERSON_AND_ORGANIZATION ( #163, #274 ) ;
#88 = DIRECTION ( 'NONE',  ( 1.000000000000000000, 0.0000000000000000000, 0.0000000000000000000 ) ) ;
#89 = DATE_TIME_ROLE ( 'creation_date' ) ;
#90 = CARTESIAN_POINT ( 'NONE',  ( 12.50000000000000000, 17.67766952966358900, -1.112641391681767300E-015 ) ) ;
#91 = DATE_AND_TIME ( #167, #238 ) ;
#92 = ORIENTED_EDGE ( 'NONE', *, *, #83, .F. ) ;
#93 = APPLICATION_CONTEXT ( 'configuration controlled 3d designs of mechanical parts and assemblies' ) ;
#94 = CC_DESIGN_PERSON_AND_ORGANIZATION_ASSIGNMENT ( #166, #316, ( #40 ) ) ;
#95 = APPROVAL_STATUS ( 'not_yet_approved' ) ;
#96 = DATE_TIME_ROLE ( 'classification_date' ) ;
#97 = CARTESIAN_POINT ( 'NONE',  ( 12.50000000000000000, -2.164890140588744600E-015, -17.67766952966377800 ) ) ;
#98 = CONTEXT_DEPENDENT_SHAPE_REPRESENTATION ( #42, #104 ) ;
#99 = LOCAL_TIME ( 9, 27, 16.00000000000000000, #172 ) ;
#100 = DIRECTION ( 'NONE',  ( -1.000000000000000000, -0.0000000000000000000, -0.0000000000000000000 ) ) ;
#101 = AXIS2_PLACEMENT_3D ( 'NONE', #203, #33, #226 ) ;
#102 = PERSON_AND_ORGANIZATION ( #163, #274 ) ;
#103 = ORIENTED_EDGE ( 'NONE', *, *, #26, .F. ) ;
#104 = PRODUCT_DEFINITION_SHAPE ( 'NONE', 'NONE',  #361 ) ;
#105 = EDGE_CURVE ( 'NONE', #162, #260, #44, .T. ) ;
#106 = DATE_AND_TIME ( #182, #251 ) ;
#107 = CC_DESIGN_PERSON_AND_ORGANIZATION_ASSIGNMENT ( #24, #67, ( #84 ) ) ;
#108 = FACE_OUTER_BOUND ( 'NONE', #38, .T. ) ;
#109 = DIRECTION ( 'NONE',  ( -1.000000000000000000, -0.0000000000000000000, -0.0000000000000000000 ) ) ;
#110 = CALENDAR_DATE ( 2017, 18, 7 ) ;
#111 = PLANE ( 'NONE',  #300 ) ;
#112 = EDGE_CURVE ( 'NONE', #82, #143, #192, .T. ) ;
#113 = LOCAL_TIME ( 9, 27, 16.00000000000000000, #187 ) ;
#114 = LINE ( 'NONE', #90, #56 ) ;
#115 = CC_DESIGN_PERSON_AND_ORGANIZATION_ASSIGNMENT ( #87, #151, ( #40 ) ) ;
#116 = CARTESIAN_POINT ( 'NONE',  ( 12.50000000000000000, 17.67766952966358900, -1.112641391681767300E-015 ) ) ;
#117 = CALENDAR_DATE ( 2017, 18, 7 ) ;
#118 = LINE ( 'NONE', #97, #50 ) ;
#119 = DATE_AND_TIME ( #193, #268 ) ;
#120 = DIRECTION ( 'NONE',  ( 0.0000000000000000000, 0.0000000000000000000, 1.000000000000000000 ) ) ;
#121 = DIRECTION ( 'NONE',  ( 1.000000000000000000, 0.0000000000000000000, 0.0000000000000000000 ) ) ;
#122 = CALENDAR_DATE ( 2017, 18, 7 ) ;
#123 = ORIENTED_EDGE ( 'NONE', *, *, #105, .T. ) ;
#124 = APPROVAL_ROLE ( '' ) ;
#125 = APPROVAL_STATUS ( 'not_yet_approved' ) ;
#126 =( REPRESENTATION_RELATIONSHIP ('NONE','NONE', #141, #139 ) REPRESENTATION_RELATIONSHIP_WITH_TRANSFORMATION ( #220 )SHAPE_REPRESENTATION_RELATIONSHIP( ) );
#127 = ITEM_DEFINED_TRANSFORMATION ( 'NONE', 'NONE', #177,  #101 ) ;
#128 = VECTOR ( 'NONE', #100, 1000.000000000000000 ) ;
#129 = PERSON_AND_ORGANIZATION ( #163, #274 ) ;
#130 = CC_DESIGN_DATE_AND_TIME_ASSIGNMENT ( #91, #263, ( #84 ) ) ;
#131 = UNCERTAINTY_MEASURE_WITH_UNIT (LENGTH_MEASURE( 1.000000000000000100E-005 ), #8, 'distance_accuracy_value', 'NONE');
#132 = DATE_AND_TIME ( #206, #277 ) ;
#133 = SECURITY_CLASSIFICATION ( '', '', #346 ) ;
#134 = APPROVAL_DATE_TIME ( #210, #236 ) ;
#135 = LINE ( 'NONE', #157, #273 ) ;
#136 = PRODUCT ( '25mm BEAMSPLITTER CUBE TS_35963', '25mm BEAMSPLITTER CUBE TS_35963', '', ( #175 ) ) ;
#137 = DIRECTION ( 'NONE',  ( 0.0000000000000000000, -0.7071067811865439100, 0.7071067811865512400 ) ) ;
#138 = PERSON_AND_ORGANIZATION ( #163, #274 ) ;
#139 = SHAPE_REPRESENTATION ( '25x25 Right Angle Prism Master', ( #101 ), #63 ) ;
#140 = AXIS2_PLACEMENT_3D ( 'NONE', #60, #257, #88 ) ;
#141 = SHAPE_REPRESENTATION ( '25mm BEAMSPLITTER CUBE TS_35963', ( #230, #160, #177 ), #195 ) ;
#142 = DATE_AND_TIME ( #215, #290 ) ;
#143 = VERTEX_POINT ( 'NONE', #116 ) ;
#144 = CARTESIAN_POINT ( 'NONE',  ( -12.50000000000000000, -2.164890140588744600E-015, -17.67766952966377800 ) ) ;
#145 = APPROVAL ( #95, 'UNSPECIFIED' ) ;
#146 = CARTESIAN_POINT ( 'NONE',  ( -12.50000000000000000, 17.67766952966358900, -1.112641391681767300E-015 ) ) ;
#147 =( LENGTH_UNIT ( ) NAMED_UNIT ( * ) SI_UNIT ( .MILLI., .METRE. ) );
#148 = LOCAL_TIME ( 9, 27, 16.00000000000000000, #219 ) ;
#149 = CARTESIAN_POINT ( 'NONE',  ( 0.0000000000000000000, 0.0000000000000000000, 0.0000000000000000000 ) ) ;
#150 = APPLICATION_CONTEXT ( 'configuration controlled 3d designs of mechanical parts and assemblies' ) ;
#151 = PERSON_AND_ORGANIZATION_ROLE ( 'design_supplier' ) ;
#152 = DESIGN_CONTEXT ( 'detailed design', #93, 'design' ) ;
#153 = PERSON_AND_ORGANIZATION_ROLE ( 'creator' ) ;
#154 = ORIENTED_EDGE ( 'NONE', *, *, #112, .F. ) ;
#155 = CC_DESIGN_PERSON_AND_ORGANIZATION_ASSIGNMENT ( #18, #179, ( #133 ) ) ;
#156 = APPROVAL_STATUS ( 'not_yet_approved' ) ;
#157 = CARTESIAN_POINT ( 'NONE',  ( -12.50000000000000000, 0.0000000000000000000, 17.67766952966377800 ) ) ;
#158 = CALENDAR_DATE ( 2017, 18, 7 ) ;
#159 = DIRECTION ( 'NONE',  ( 0.0000000000000000000, -0.7071067811865439100, 0.7071067811865512400 ) ) ;
#160 = AXIS2_PLACEMENT_3D ( 'NONE', #284, #121, #315 ) ;
#161 = LOCAL_TIME ( 9, 27, 16.00000000000000000, #232 ) ;
#162 = VERTEX_POINT ( 'NONE', #144 ) ;
#163 = PERSON ( 'UNSPECIFIED', 'UNSPECIFIED', 'UNSPECIFIED', ('UNSPECIFIED'), ('UNSPECIFIED'), ('UNSPECIFIED') ) ;
#164 = CC_DESIGN_APPROVAL ( #145, ( #84 ) ) ;
#165 = CARTESIAN_POINT ( 'NONE',  ( 12.50000000000000000, 0.0000000000000000000, 17.67766952966377800 ) ) ;
#166 = PERSON_AND_ORGANIZATION ( #163, #274 ) ;
#167 = CALENDAR_DATE ( 2017, 18, 7 ) ;
#168 = ORIENTED_EDGE ( 'NONE', *, *, #49, .F. ) ;
#169 = CC_DESIGN_DATE_AND_TIME_ASSIGNMENT ( #78, #11, ( #133 ) ) ;
#170 = APPROVAL_PERSON_ORGANIZATION ( #243, #353, #265 ) ;
#171 = CARTESIAN_POINT ( 'NONE',  ( 12.50000000000000000, 0.0000000000000000000, 17.67766952966377800 ) ) ;
#172 = COORDINATED_UNIVERSAL_TIME_OFFSET ( 5, 0, .BEHIND. ) ;
#173 =( NAMED_UNIT ( * ) SI_UNIT ( $, .STERADIAN. ) SOLID_ANGLE_UNIT ( ) );
#174 = DIRECTION ( 'NONE',  ( -5.551115123125782700E-017, 0.0000000000000000000, -1.000000000000000200 ) ) ;
#175 = MECHANICAL_CONTEXT ( 'NONE', #150, 'mechanical' ) ;
#176 = PERSON_AND_ORGANIZATION ( #163, #274 ) ;
#177 = AXIS2_PLACEMENT_3D ( 'NONE', #149, #342, #174 ) ;
#178 = VERTEX_POINT ( 'NONE', #228 ) ;
#179 = PERSON_AND_ORGANIZATION_ROLE ( 'classification_officer' ) ;
#180 = APPROVAL_STATUS ( 'not_yet_approved' ) ;
#181 = DATE_TIME_ROLE ( 'classification_date' ) ;
#182 = CALENDAR_DATE ( 2017, 18, 7 ) ;
#183 = FACE_OUTER_BOUND ( 'NONE', #77, .T. ) ;
#184 = ADVANCED_FACE ( 'NONE', ( #244 ), #4, .F. ) ;
#185 = LOCAL_TIME ( 9, 27, 16.00000000000000000, #254 ) ;
#186 = CC_DESIGN_SECURITY_CLASSIFICATION ( #84, ( #358 ) ) ;
#187 = COORDINATED_UNIVERSAL_TIME_OFFSET ( 5, 0, .BEHIND. ) ;
#188 = CLOSED_SHELL ( 'NONE', ( #184, #294, #322, #72, #213 ) ) ;
#189 = APPROVAL ( #208, 'UNSPECIFIED' ) ;
#190 = PRODUCT ( '25x25 Right Angle Prism Master', '25x25 Right Angle Prism Master', '', ( #65 ) ) ;
#191 = LOCAL_TIME ( 9, 27, 16.00000000000000000, #266 ) ;
#192 = LINE ( 'NONE', #281, #30 ) ;
#193 = CALENDAR_DATE ( 2017, 18, 7 ) ;
#194 = LOCAL_TIME ( 9, 27, 16.00000000000000000, #269 ) ;
#195 =( GEOMETRIC_REPRESENTATION_CONTEXT ( 3 ) GLOBAL_UNCERTAINTY_ASSIGNED_CONTEXT ( ( #131 ) ) GLOBAL_UNIT_ASSIGNED_CONTEXT ( ( #8, #204, #34 ) ) REPRESENTATION_CONTEXT ( 'NONE', 'WORKASPACE' ) );
#196 = DESIGN_CONTEXT ( 'detailed design', #207, 'design' ) ;
#197 = CONTEXT_DEPENDENT_SHAPE_REPRESENTATION ( #126, #240 ) ;
#198 = FACE_OUTER_BOUND ( 'NONE', #20, .T. ) ;
#199 = PERSON_AND_ORGANIZATION ( #163, #274 ) ;
#200 = CARTESIAN_POINT ( 'NONE',  ( 12.50000000000000000, 17.67766952966358900, -1.112641391681767300E-015 ) ) ;
#201 = PRODUCT_RELATED_PRODUCT_CATEGORY ( 'detail', '', ( #190 ) ) ;
#202 = DIRECTION ( 'NONE',  ( 0.0000000000000000000, 6.123233995736767300E-017, 1.000000000000000000 ) ) ;
#203 = CARTESIAN_POINT ( 'NONE',  ( 0.0000000000000000000, 0.0000000000000000000, 0.0000000000000000000 ) ) ;
#204 =( NAMED_UNIT ( * ) PLANE_ANGLE_UNIT ( ) SI_UNIT ( $, .RADIAN. ) );
#205 = CARTESIAN_POINT ( 'NONE',  ( -12.50000000000000000, -2.164890140588744600E-015, -17.67766952966377800 ) ) ;
#206 = CALENDAR_DATE ( 2017, 18, 7 ) ;
#207 = APPLICATION_CONTEXT ( 'configuration controlled 3d designs of mechanical parts and assemblies' ) ;
#208 = APPROVAL_STATUS ( 'not_yet_approved' ) ;
#209 = PERSON_AND_ORGANIZATION_ROLE ( 'creator' ) ;
#210 = DATE_AND_TIME ( #278, #356 ) ;
#211 = CC_DESIGN_APPROVAL ( #189, ( #133 ) ) ;
#212 = VECTOR ( 'NONE', #109, 1000.000000000000000 ) ;
#213 = ADVANCED_FACE ( 'NONE', ( #183 ), #253, .T. ) ;
#214 = PERSON_AND_ORGANIZATION ( #163, #274 ) ;
#215 = CALENDAR_DATE ( 2017, 18, 7 ) ;
#216 = ORIENTED_EDGE ( 'NONE', *, *, #35, .T. ) ;
#217 = PERSON ( 'NAUO-PER1', 'UNSPECIFIED', 'UNSPECIFIED', ('UNSPECIFIED'), ('UNSPECIFIED'), ('UNSPECIFIED') ) ;
#218 = CC_DESIGN_SECURITY_CLASSIFICATION ( #271, ( #360 ) ) ;
#219 = COORDINATED_UNIVERSAL_TIME_OFFSET ( 5, 0, .BEHIND. ) ;
#220 = ITEM_DEFINED_TRANSFORMATION ( 'NONE', 'NONE', #160,  #101 ) ;
#221 = EDGE_LOOP ( 'NONE', ( #302, #270, #103, #310 ) ) ;
#222 = CC_DESIGN_SECURITY_CLASSIFICATION ( #133, ( #40 ) ) ;
#223 = DIRECTION ( 'NONE',  ( 0.0000000000000000000, -6.123233995736767300E-017, -1.000000000000000000 ) ) ;
#224 = DIRECTION ( 'NONE',  ( 0.0000000000000000000, 0.7071067811865439100, -0.7071067811865512400 ) ) ;
#225 = LOCAL_TIME ( 9, 27, 16.00000000000000000, #305 ) ;
#226 = DIRECTION ( 'NONE',  ( 1.000000000000000000, 0.0000000000000000000, 0.0000000000000000000 ) ) ;
#227 = MANIFOLD_SOLID_BREP ( 'Extrude1', #188 ) ;
#228 = CARTESIAN_POINT ( 'NONE',  ( -12.50000000000000000, 0.0000000000000000000, 17.67766952966377800 ) ) ;
#229 = APPROVAL_STATUS ( 'not_yet_approved' ) ;
#230 = AXIS2_PLACEMENT_3D ( 'NONE', #314, #62, #258 ) ;
#231 = APPLICATION_PROTOCOL_DEFINITION ( 'international standard', 'config_control_design', 1994, #286 ) ;
#232 = COORDINATED_UNIVERSAL_TIME_OFFSET ( 5, 0, .BEHIND. ) ;
#233 = ORIENTED_EDGE ( 'NONE', *, *, #105, .F. ) ;
#234 = SECURITY_CLASSIFICATION_LEVEL ( 'unclassified' ) ;
#235 = SECURITY_CLASSIFICATION_LEVEL ( 'unclassified' ) ;
#236 = APPROVAL ( #156, 'UNKNOWN' ) ;
#237 = APPROVAL_DATE_TIME ( #312, #54 ) ;
#238 = LOCAL_TIME ( 9, 27, 16.00000000000000000, #317 ) ;
#239 = ORIENTED_EDGE ( 'NONE', *, *, #26, .T. ) ;
#240 = PRODUCT_DEFINITION_SHAPE ( 'NONE', 'NONE',  #360 ) ;
#241 = PRODUCT_RELATED_PRODUCT_CATEGORY ( 'detail', '', ( #136 ) ) ;
#242 = PERSON ( 'NAUO-PER2', 'UNSPECIFIED', 'UNSPECIFIED', ('UNSPECIFIED'), ('UNSPECIFIED'), ('UNSPECIFIED') ) ;
#243 = PERSON_AND_ORGANIZATION ( #242, #323 ) ;
#244 = FACE_OUTER_BOUND ( 'NONE', #221, .T. ) ;
#245 = APPROVAL_PERSON_ORGANIZATION ( #325, #54, #124 ) ;
#246 = DIRECTION ( 'NONE',  ( -1.000000000000000000, 0.0000000000000000000, 0.0000000000000000000 ) ) ;
#247 = APPROVAL_DATE_TIME ( #326, #17 ) ;
#248 = ORIENTED_EDGE ( 'NONE', *, *, #74, .F. ) ;
#249 = CC_DESIGN_PERSON_AND_ORGANIZATION_ASSIGNMENT ( #214, #262, ( #190 ) ) ;
#250 = CARTESIAN_POINT ( 'NONE',  ( -12.50000000000000000, 17.67766952966358600, -3.469446951953614200E-015 ) ) ;
#251 = LOCAL_TIME ( 9, 27, 16.00000000000000000, #329 ) ;
#252 = VECTOR ( 'NONE', #223, 1000.000000000000000 ) ;
#253 = PLANE ( 'NONE',  #9 ) ;
#254 = COORDINATED_UNIVERSAL_TIME_OFFSET ( 5, 0, .BEHIND. ) ;
#255 = CC_DESIGN_APPROVAL ( #236, ( #271 ) ) ;
#256 = PLANE ( 'NONE',  #80 ) ;
#257 = DIRECTION ( 'NONE',  ( 0.0000000000000000000, 0.0000000000000000000, 1.000000000000000000 ) ) ;
#258 = DIRECTION ( 'NONE',  ( 1.000000000000000000, 0.0000000000000000000, 0.0000000000000000000 ) ) ;
#259 = APPROVAL_PERSON_ORGANIZATION ( #334, #17, #15 ) ;
#260 = VERTEX_POINT ( 'NONE', #146 ) ;
#261 = PERSON_AND_ORGANIZATION_ROLE ( 'creator' ) ;
#262 = PERSON_AND_ORGANIZATION_ROLE ( 'design_owner' ) ;
#263 = DATE_TIME_ROLE ( 'classification_date' ) ;
#264 = PRODUCT_DEFINITION ( 'UNKNOWN', '', #358, #152 ) ;
#265 = APPROVAL_ROLE ( '' ) ;
#266 = COORDINATED_UNIVERSAL_TIME_OFFSET ( 5, 0, .BEHIND. ) ;
#267 = VECTOR ( 'NONE', #57, 1000.000000000000000 ) ;
#268 = LOCAL_TIME ( 9, 27, 16.00000000000000000, #340 ) ;
#269 = COORDINATED_UNIVERSAL_TIME_OFFSET ( 5, 0, .BEHIND. ) ;
#270 = ORIENTED_EDGE ( 'NONE', *, *, #12, .F. ) ;
#271 = SECURITY_CLASSIFICATION ( '', '', #320 ) ;
#272 = APPROVAL_PERSON_ORGANIZATION ( #350, #236, #349 ) ;
#273 = VECTOR ( 'NONE', #336, 1000.000000000000000 ) ;
#274 = ORGANIZATION ( 'UNSPECIFIED', 'UNSPECIFIED', '' ) ;
#275 = CC_DESIGN_DATE_AND_TIME_ASSIGNMENT ( #142, #181, ( #271 ) ) ;
#276 = SHAPE_REPRESENTATION_RELATIONSHIP ( 'NONE' , 'NONE' ,  #139, #299 ) ;
#277 = LOCAL_TIME ( 9, 27, 16.00000000000000000, #354 ) ;
#278 = CALENDAR_DATE ( 2017, 18, 7 ) ;
#279 = LINE ( 'NONE', #165, #212 ) ;
#280 = APPROVAL ( #125, 'UNSPECIFIED' ) ;
#281 = CARTESIAN_POINT ( 'NONE',  ( 12.50000000000000000, -2.164890140588744600E-015, -17.67766952966377800 ) ) ;
#282 = DIRECTION ( 'NONE',  ( -1.000000000000000000, 0.0000000000000000000, 0.0000000000000000000 ) ) ;
#283 = DIRECTION ( 'NONE',  ( 0.0000000000000000000, -0.7071067811865439100, -0.7071067811865512400 ) ) ;
#284 = CARTESIAN_POINT ( 'NONE',  ( 0.0000000000000000000, 0.0000000000000000000, 0.0000000000000000000 ) ) ;
#285 = APPROVAL_DATE_TIME ( #359, #189 ) ;
#286 = APPLICATION_CONTEXT ( 'configuration controlled 3d designs of mechanical parts and assemblies' ) ;
#287 = APPROVAL_STATUS ( 'not_yet_approved' ) ;
#288 = CC_DESIGN_PERSON_AND_ORGANIZATION_ASSIGNMENT ( #199, #10, ( #136 ) ) ;
#289 = APPLICATION_PROTOCOL_DEFINITION ( 'international standard', 'config_control_design', 1994, #93 ) ;
#290 = LOCAL_TIME ( 9, 27, 16.00000000000000000, #2 ) ;
#291 = EDGE_LOOP ( 'NONE', ( #123, #168, #154, #335 ) ) ;
#292 = APPROVAL_ROLE ( '' ) ;
#293 = PERSON_AND_ORGANIZATION_ROLE ( 'classification_officer' ) ;
#294 = ADVANCED_FACE ( 'NONE', ( #108 ), #85, .F. ) ;
#295 = CC_DESIGN_PERSON_AND_ORGANIZATION_ASSIGNMENT ( #350, #16, ( #271 ) ) ;
#296 = CARTESIAN_POINT ( 'NONE',  ( 12.50000000000000000, -2.164890140588744600E-015, -17.67766952966377800 ) ) ;
#297 = APPROVAL_PERSON_ORGANIZATION ( #7, #189, #39 ) ;
#298 = CARTESIAN_POINT ( 'NONE',  ( 12.50000000000000000, 0.0000000000000000000, 17.67766952966377800 ) ) ;
#299 = ADVANCED_BREP_SHAPE_REPRESENTATION ( '', ( #227, #101 ), #63 ) ;
#300 = AXIS2_PLACEMENT_3D ( 'NONE', #306, #246, #79 ) ;
#301 = APPROVAL_DATE_TIME ( #13, #145 ) ;
#302 = ORIENTED_EDGE ( 'NONE', *, *, #66, .T. ) ;
#303 = CC_DESIGN_APPROVAL ( #280, ( #264 ) ) ;
#304 = CARTESIAN_POINT ( 'NONE',  ( -12.50000000000000000, 17.67766952966358900, -1.112641391681767300E-015 ) ) ;
#305 = COORDINATED_UNIVERSAL_TIME_OFFSET ( 5, 0, .BEHIND. ) ;
#306 = CARTESIAN_POINT ( 'NONE',  ( 12.50000000000000000, 17.67766952966358600, -3.469446951953614200E-015 ) ) ;
#307 = PRODUCT_DEFINITION_SHAPE ( 'NONE', 'NONE',  #264 ) ;
#308 = APPROVAL_PERSON_ORGANIZATION ( #19, #145, #292 ) ;
#309 = PRODUCT_DEFINITION ( 'UNKNOWN', '', #40, #196 ) ;
#310 = ORIENTED_EDGE ( 'NONE', *, *, #49, .T. ) ;
#311 = DIRECTION ( 'NONE',  ( 0.0000000000000000000, 0.7071067811865439100, 0.7071067811865512400 ) ) ;
#312 = DATE_AND_TIME ( #22, #99 ) ;
#313 = SECURITY_CLASSIFICATION ( '', '', #235 ) ;
#314 = CARTESIAN_POINT ( 'NONE',  ( 0.0000000000000000000, 0.0000000000000000000, 0.0000000000000000000 ) ) ;
#315 = DIRECTION ( 'NONE',  ( 0.0000000000000000000, 0.0000000000000000000, -1.000000000000000000 ) ) ;
#316 = PERSON_AND_ORGANIZATION_ROLE ( 'creator' ) ;
#317 = COORDINATED_UNIVERSAL_TIME_OFFSET ( 5, 0, .BEHIND. ) ;
#318 = VERTEX_POINT ( 'NONE', #59 ) ;
#319 = APPROVAL_ROLE ( '' ) ;
#320 = SECURITY_CLASSIFICATION_LEVEL ( 'unclassified' ) ;
#321 = CC_DESIGN_PERSON_AND_ORGANIZATION_ASSIGNMENT ( #343, #153, ( #264 ) ) ;
#322 = ADVANCED_FACE ( 'NONE', ( #324 ), #256, .F. ) ;
#323 = ORGANIZATION ( 'NAUO-ORG2', 'UNSPECIFIED', 'UNSPECIFIED' ) ;
#324 = FACE_OUTER_BOUND ( 'NONE', #291, .T. ) ;
#325 = PERSON_AND_ORGANIZATION ( #163, #274 ) ;
#326 = DATE_AND_TIME ( #37, #113 ) ;
#327 = ORIENTED_EDGE ( 'NONE', *, *, #112, .T. ) ;
#328 = APPROVAL ( #229, 'UNSPECIFIED' ) ;
#329 = COORDINATED_UNIVERSAL_TIME_OFFSET ( 5, 0, .BEHIND. ) ;
#330 = LINE ( 'NONE', #298, #252 ) ;
#331 = PERSON_AND_ORGANIZATION ( #163, #274 ) ;
#332 = CC_DESIGN_SECURITY_CLASSIFICATION ( #313, ( #361 ) ) ;
#333 = AXIS2_PLACEMENT_3D ( 'NONE', #200, #28, #224 ) ;
#334 = PERSON_AND_ORGANIZATION ( #163, #274 ) ;
#335 = ORIENTED_EDGE ( 'NONE', *, *, #74, .T. ) ;
#336 = DIRECTION ( 'NONE',  ( 0.0000000000000000000, -6.123233995736767300E-017, -1.000000000000000000 ) ) ;
#337 = CC_DESIGN_DATE_AND_TIME_ASSIGNMENT ( #47, #348, ( #264 ) ) ;
#338 = VECTOR ( 'NONE', #137, 999.9999999999998900 ) ;
#339 = DIRECTION ( 'NONE',  ( -1.000000000000000000, -0.0000000000000000000, -0.0000000000000000000 ) ) ;
#340 = COORDINATED_UNIVERSAL_TIME_OFFSET ( 5, 0, .BEHIND. ) ;
#341 =( NAMED_UNIT ( * ) PLANE_ANGLE_UNIT ( ) SI_UNIT ( $, .RADIAN. ) );
#342 = DIRECTION ( 'NONE',  ( -1.000000000000000200, 0.0000000000000000000, 5.551115123125782700E-017 ) ) ;
#343 = PERSON_AND_ORGANIZATION ( #163, #274 ) ;
#344 = APPLICATION_PROTOCOL_DEFINITION ( 'international standard', 'config_control_design', 1994, #150 ) ;
#345 = CARTESIAN_POINT ( 'NONE',  ( 12.50000000000000000, 17.67766952966358900, -1.112641391681767300E-015 ) ) ;
#346 = SECURITY_CLASSIFICATION_LEVEL ( 'unclassified' ) ;
#347 = CC_DESIGN_APPROVAL ( #328, ( #309 ) ) ;
#348 = DATE_TIME_ROLE ( 'creation_date' ) ;
#349 = APPROVAL_ROLE ( '' ) ;
#350 = PERSON_AND_ORGANIZATION ( #217, #55 ) ;
#351 = LINE ( 'NONE', #345, #128 ) ;
#352 = SHAPE_DEFINITION_REPRESENTATION ( #307, #139 ) ;
#353 = APPROVAL ( #70, 'UNKNOWN' ) ;
#354 = COORDINATED_UNIVERSAL_TIME_OFFSET ( 5, 0, .BEHIND. ) ;
#355 = PRODUCT_DEFINITION_SHAPE ( 'NONE', 'NONE',  #309 ) ;
#356 = LOCAL_TIME ( 9, 27, 16.00000000000000000, #68 ) ;
#357 = LINE ( 'NONE', #304, #338 ) ;
#358 = PRODUCT_DEFINITION_FORMATION_WITH_SPECIFIED_SOURCE ( 'ANY', '', #190, .NOT_KNOWN. ) ;
#359 = DATE_AND_TIME ( #73, #148 ) ;
#360 = NEXT_ASSEMBLY_USAGE_OCCURRENCE ( 'NAUO1', ' ', ' ', #309, #264, $ ) ;
#361 = NEXT_ASSEMBLY_USAGE_OCCURRENCE ( 'NAUO2', ' ', ' ', #309, #264, $ ) ;
ENDSEC;
END-ISO-10303-21;
