ISO-10303-21;
HEADER;
FILE_DESCRIPTION (( 'STEP AP203' ),
    '1' );
FILE_NAME ('Web Model 63208_63208.step',
    '2020-10-07T17:38:10',
    ( '' ),
    ( '' ),
    'SwSTEP 2.0',
    'SolidWorks 2018',
    '' );
FILE_SCHEMA (( 'CONFIG_CONTROL_DESIGN' ));
ENDSEC;

DATA;
#1 = LOCAL_TIME ( 13, 38, 10.00000000000000000, #166 ) ;
#2 = CIRCLE ( 'NONE', #96, 15.00000000000000000 ) ;
#3 = PERSON ( 'UNSPECIFIED', 'UNSPECIFIED', 'UNSPECIFIED', ('UNSPECIFIED'), ('UNSPECIFIED'), ('UNSPECIFIED') ) ;
#4 = LOCAL_TIME ( 13, 38, 10.00000000000000000, #163 ) ;
#5 = CARTESIAN_POINT ( 'NONE',  ( 15.00000000000000000, 1.836970198721029589E-15, 0.0000000000000000000 ) ) ;
#6 = DIRECTION ( 'NONE',  ( 1.000000000000000000, 0.0000000000000000000, 0.0000000000000000000 ) ) ;
#7 = DIRECTION ( 'NONE',  ( 0.0000000000000000000, 0.0000000000000000000, 1.000000000000000000 ) ) ;
#8 = CALENDAR_DATE ( 2020, 7, 10 ) ;
#9 = ORIENTED_EDGE ( 'NONE', *, *, #74, .F. ) ;
#10 = DIRECTION ( 'NONE',  ( -0.0000000000000000000, -0.0000000000000000000, -1.000000000000000000 ) ) ;
#11 = ADVANCED_FACE ( 'NONE', ( #164 ), #137, .T. ) ;
#12 = PERSON_AND_ORGANIZATION ( #3, #118 ) ;
#13 = ADVANCED_FACE ( 'NONE', ( #149 ), #115, .T. ) ;
#14 = CC_DESIGN_PERSON_AND_ORGANIZATION_ASSIGNMENT ( #97, #119, ( #16 ) ) ;
#15 = ORIENTED_EDGE ( 'NONE', *, *, #94, .F. ) ;
#16 = PRODUCT_DEFINITION ( 'UNKNOWN', '', #56, #143 ) ;
#17 = MANIFOLD_SOLID_BREP ( 'Extrude1', #100 ) ;
#18 = DIRECTION ( 'NONE',  ( 0.0000000000000000000, 0.0000000000000000000, 1.000000000000000000 ) ) ;
#19 = DATE_AND_TIME ( #8, #91 ) ;
#20 = DIRECTION ( 'NONE',  ( -1.000000000000000000, 0.0000000000000000000, 0.0000000000000000000 ) ) ;
#21 = PRODUCT_DEFINITION_SHAPE ( 'NONE', 'NONE',  #16 ) ;
#22 = AXIS2_PLACEMENT_3D ( 'NONE', #88, #141, #107 ) ;
#23 = ORIENTED_EDGE ( 'NONE', *, *, #81, .F. ) ;
#24 = APPROVAL ( #155, 'UNSPECIFIED' ) ;
#25 = APPROVAL_STATUS ( 'not_yet_approved' ) ;
#26 = DIRECTION ( 'NONE',  ( 0.0000000000000000000, 0.0000000000000000000, 1.000000000000000000 ) ) ;
#27 = CARTESIAN_POINT ( 'NONE',  ( 0.0000000000000000000, 0.0000000000000000000, 0.0000000000000000000 ) ) ;
#28 = PERSON_AND_ORGANIZATION_ROLE ( 'classification_officer' ) ;
#29 =( NAMED_UNIT ( * ) SI_UNIT ( $, .STERADIAN. ) SOLID_ANGLE_UNIT ( ) );
#30 = APPROVAL ( #25, 'UNSPECIFIED' ) ;
#31 = LINE ( 'NONE', #90, #127 ) ;
#32 = LOCAL_TIME ( 13, 38, 10.00000000000000000, #84 ) ;
#33 = DATE_AND_TIME ( #174, #144 ) ;
#34 = FACE_OUTER_BOUND ( 'NONE', #93, .T. ) ;
#35 = CC_DESIGN_APPROVAL ( #24, ( #56 ) ) ;
#36 = CC_DESIGN_APPROVAL ( #30, ( #16 ) ) ;
#37 = DATE_AND_TIME ( #71, #32 ) ;
#38 = CARTESIAN_POINT ( 'NONE',  ( -15.00000000000000000, 0.0000000000000000000, 0.0000000000000000000 ) ) ;
#39 = PERSON_AND_ORGANIZATION_ROLE ( 'design_owner' ) ;
#40 = CARTESIAN_POINT ( 'NONE',  ( 0.0000000000000000000, 0.0000000000000000000, 0.0000000000000000000 ) ) ;
#41 = LINE ( 'NONE', #167, #146 ) ;
#42 = APPROVAL_PERSON_ORGANIZATION ( #169, #30, #48 ) ;
#43 = SHAPE_DEFINITION_REPRESENTATION ( #21, #108 ) ;
#44 = EDGE_CURVE ( 'NONE', #123, #80, #2, .T. ) ;
#45 = PLANE ( 'NONE',  #22 ) ;
#46 = CARTESIAN_POINT ( 'NONE',  ( 0.0000000000000000000, 0.0000000000000000000, 0.0000000000000000000 ) ) ;
#47 = CC_DESIGN_DATE_AND_TIME_ASSIGNMENT ( #37, #139, ( #16 ) ) ;
#48 = APPROVAL_ROLE ( '' ) ;
#49 = APPROVAL_STATUS ( 'not_yet_approved' ) ;
#50 = ORIENTED_EDGE ( 'NONE', *, *, #44, .F. ) ;
#51 = DIRECTION ( 'NONE',  ( 1.000000000000000000, 0.0000000000000000000, 0.0000000000000000000 ) ) ;
#52 = ADVANCED_FACE ( 'NONE', ( #34 ), #45, .F. ) ;
#53 = CIRCLE ( 'NONE', #105, 15.00000000000000000 ) ;
#54 = DATE_AND_TIME ( #132, #1 ) ;
#55 = CC_DESIGN_APPROVAL ( #59, ( #152 ) ) ;
#56 = PRODUCT_DEFINITION_FORMATION_WITH_SPECIFIED_SOURCE ( 'ANY', '', #87, .NOT_KNOWN. ) ;
#57 = COORDINATED_UNIVERSAL_TIME_OFFSET ( 5, 0, .BEHIND. ) ;
#58 = ORIENTED_EDGE ( 'NONE', *, *, #44, .T. ) ;
#59 = APPROVAL ( #49, 'UNSPECIFIED' ) ;
#60 = ORIENTED_EDGE ( 'NONE', *, *, #134, .T. ) ;
#61 = DIRECTION ( 'NONE',  ( 0.0000000000000000000, 0.0000000000000000000, 1.000000000000000000 ) ) ;
#62 = CARTESIAN_POINT ( 'NONE',  ( 0.0000000000000000000, 0.0000000000000000000, 3.000000000000000000 ) ) ;
#63 = APPROVAL_PERSON_ORGANIZATION ( #101, #59, #67 ) ;
#64 = APPROVAL_DATE_TIME ( #75, #30 ) ;
#65 = APPLICATION_CONTEXT ( 'configuration controlled 3d designs of mechanical parts and assemblies' ) ;
#66 = ORIENTED_EDGE ( 'NONE', *, *, #116, .F. ) ;
#67 = APPROVAL_ROLE ( '' ) ;
#68 = DIRECTION ( 'NONE',  ( 1.000000000000000000, 0.0000000000000000000, 0.0000000000000000000 ) ) ;
#69 = COORDINATED_UNIVERSAL_TIME_OFFSET ( 5, 0, .BEHIND. ) ;
#70 = CC_DESIGN_SECURITY_CLASSIFICATION ( #152, ( #56 ) ) ;
#71 = CALENDAR_DATE ( 2020, 7, 10 ) ;
#72 = ORIENTED_EDGE ( 'NONE', *, *, #81, .T. ) ;
#73 = PRODUCT_RELATED_PRODUCT_CATEGORY ( 'detail', '', ( #87 ) ) ;
#74 = EDGE_CURVE ( 'NONE', #123, #162, #31, .T. ) ;
#75 = DATE_AND_TIME ( #113, #4 ) ;
#76 = APPROVAL_ROLE ( '' ) ;
#77 = PERSON_AND_ORGANIZATION_ROLE ( 'design_supplier' ) ;
#78 = CARTESIAN_POINT ( 'NONE',  ( 15.00000000000000000, 1.836970198721029589E-15, 3.000000000000000000 ) ) ;
#79 = EDGE_LOOP ( 'NONE', ( #9, #66, #150, #72 ) ) ;
#80 = VERTEX_POINT ( 'NONE', #122 ) ;
#81 = EDGE_CURVE ( 'NONE', #117, #162, #158, .T. ) ;
#82 = CC_DESIGN_PERSON_AND_ORGANIZATION_ASSIGNMENT ( #104, #89, ( #56 ) ) ;
#83 = CC_DESIGN_PERSON_AND_ORGANIZATION_ASSIGNMENT ( #168, #28, ( #152 ) ) ;
#84 = COORDINATED_UNIVERSAL_TIME_OFFSET ( 5, 0, .BEHIND. ) ;
#85 = ORIENTED_EDGE ( 'NONE', *, *, #134, .F. ) ;
#86 = DIRECTION ( 'NONE',  ( -0.0000000000000000000, -0.0000000000000000000, -1.000000000000000000 ) ) ;
#87 = PRODUCT ( 'Web Model 63208_63208', 'Web Model 63208_63208', '', ( #145 ) ) ;
#88 = CARTESIAN_POINT ( 'NONE',  ( 0.0000000000000000000, 0.0000000000000000000, 0.0000000000000000000 ) ) ;
#89 = PERSON_AND_ORGANIZATION_ROLE ( 'creator' ) ;
#90 = CARTESIAN_POINT ( 'NONE',  ( 15.00000000000000000, 1.836970198721029589E-15, 3.000000000000000000 ) ) ;
#91 = LOCAL_TIME ( 13, 38, 10.00000000000000000, #57 ) ;
#92 = DIRECTION ( 'NONE',  ( 1.000000000000000000, 0.0000000000000000000, 0.0000000000000000000 ) ) ;
#93 = EDGE_LOOP ( 'NONE', ( #23, #85 ) ) ;
#94 = EDGE_CURVE ( 'NONE', #80, #117, #41, .T. ) ;
#95 =( LENGTH_UNIT ( ) NAMED_UNIT ( * ) SI_UNIT ( .MILLI., .METRE. ) );
#96 = AXIS2_PLACEMENT_3D ( 'NONE', #172, #26, #92 ) ;
#97 = PERSON_AND_ORGANIZATION ( #3, #118 ) ;
#98 = AXIS2_PLACEMENT_3D ( 'NONE', #120, #7, #68 ) ;
#99 = APPROVAL_PERSON_ORGANIZATION ( #128, #24, #76 ) ;
#100 = CLOSED_SHELL ( 'NONE', ( #13, #159, #11, #52 ) ) ;
#101 = PERSON_AND_ORGANIZATION ( #3, #118 ) ;
#102 = AXIS2_PLACEMENT_3D ( 'NONE', #46, #111, #129 ) ;
#103 = DIRECTION ( 'NONE',  ( 1.000000000000000000, 0.0000000000000000000, -0.0000000000000000000 ) ) ;
#104 = PERSON_AND_ORGANIZATION ( #3, #118 ) ;
#105 = AXIS2_PLACEMENT_3D ( 'NONE', #27, #61, #51 ) ;
#106 = CC_DESIGN_PERSON_AND_ORGANIZATION_ASSIGNMENT ( #12, #77, ( #56 ) ) ;
#107 = DIRECTION ( 'NONE',  ( 1.000000000000000000, 0.0000000000000000000, -0.0000000000000000000 ) ) ;
#108 = ADVANCED_BREP_SHAPE_REPRESENTATION ( 'Web Model 63208_63208', ( #17, #151 ), #154 ) ;
#109 = APPLICATION_PROTOCOL_DEFINITION ( 'international standard', 'config_control_design', 1994, #170 ) ;
#110 =( NAMED_UNIT ( * ) PLANE_ANGLE_UNIT ( ) SI_UNIT ( $, .RADIAN. ) );
#111 = DIRECTION ( 'NONE',  ( 0.0000000000000000000, 0.0000000000000000000, 1.000000000000000000 ) ) ;
#112 = FACE_OUTER_BOUND ( 'NONE', #79, .T. ) ;
#113 = CALENDAR_DATE ( 2020, 7, 10 ) ;
#114 = AXIS2_PLACEMENT_3D ( 'NONE', #62, #10, #171 ) ;
#115 = CYLINDRICAL_SURFACE ( 'NONE', #126, 15.00000000000000000 ) ;
#116 = EDGE_CURVE ( 'NONE', #80, #123, #138, .T. ) ;
#117 = VERTEX_POINT ( 'NONE', #38 ) ;
#118 = ORGANIZATION ( 'UNSPECIFIED', 'UNSPECIFIED', '' ) ;
#119 = PERSON_AND_ORGANIZATION_ROLE ( 'creator' ) ;
#120 = CARTESIAN_POINT ( 'NONE',  ( 0.0000000000000000000, 0.0000000000000000000, 3.000000000000000000 ) ) ;
#121 = DATE_TIME_ROLE ( 'classification_date' ) ;
#122 = CARTESIAN_POINT ( 'NONE',  ( -15.00000000000000000, 0.0000000000000000000, 3.000000000000000000 ) ) ;
#123 = VERTEX_POINT ( 'NONE', #78 ) ;
#124 = APPROVAL_DATE_TIME ( #54, #59 ) ;
#125 = ORIENTED_EDGE ( 'NONE', *, *, #74, .T. ) ;
#126 = AXIS2_PLACEMENT_3D ( 'NONE', #165, #86, #20 ) ;
#127 = VECTOR ( 'NONE', #156, 1000.000000000000000 ) ;
#128 = PERSON_AND_ORGANIZATION ( #3, #118 ) ;
#129 = DIRECTION ( 'NONE',  ( 1.000000000000000000, 0.0000000000000000000, 0.0000000000000000000 ) ) ;
#130 = DIRECTION ( 'NONE',  ( -0.0000000000000000000, -0.0000000000000000000, -1.000000000000000000 ) ) ;
#131 = DIRECTION ( 'NONE',  ( 0.0000000000000000000, 0.0000000000000000000, 1.000000000000000000 ) ) ;
#132 = CALENDAR_DATE ( 2020, 7, 10 ) ;
#133 = CYLINDRICAL_SURFACE ( 'NONE', #114, 15.00000000000000000 ) ;
#134 = EDGE_CURVE ( 'NONE', #162, #117, #53, .T. ) ;
#135 = EDGE_LOOP ( 'NONE', ( #50, #125, #60, #15 ) ) ;
#136 = CARTESIAN_POINT ( 'NONE',  ( 0.0000000000000000000, 0.0000000000000000000, 3.000000000000000000 ) ) ;
#137 = PLANE ( 'NONE',  #147 ) ;
#138 = CIRCLE ( 'NONE', #98, 15.00000000000000000 ) ;
#139 = DATE_TIME_ROLE ( 'creation_date' ) ;
#140 = PERSON_AND_ORGANIZATION ( #3, #118 ) ;
#141 = DIRECTION ( 'NONE',  ( 0.0000000000000000000, 0.0000000000000000000, 1.000000000000000000 ) ) ;
#142 = SECURITY_CLASSIFICATION_LEVEL ( 'unclassified' ) ;
#143 = DESIGN_CONTEXT ( 'detailed design', #65, 'design' ) ;
#144 = LOCAL_TIME ( 13, 38, 10.00000000000000000, #69 ) ;
#145 = MECHANICAL_CONTEXT ( 'NONE', #170, 'mechanical' ) ;
#146 = VECTOR ( 'NONE', #130, 1000.000000000000000 ) ;
#147 = AXIS2_PLACEMENT_3D ( 'NONE', #136, #18, #103 ) ;
#148 = UNCERTAINTY_MEASURE_WITH_UNIT (LENGTH_MEASURE( 1.000000000000000082E-05 ), #95, 'distance_accuracy_value', 'NONE');
#149 = FACE_OUTER_BOUND ( 'NONE', #135, .T. ) ;
#150 = ORIENTED_EDGE ( 'NONE', *, *, #94, .T. ) ;
#151 = AXIS2_PLACEMENT_3D ( 'NONE', #40, #131, #6 ) ;
#152 = SECURITY_CLASSIFICATION ( '', '', #142 ) ;
#153 = EDGE_LOOP ( 'NONE', ( #175, #58 ) ) ;
#154 =( GEOMETRIC_REPRESENTATION_CONTEXT ( 3 ) GLOBAL_UNCERTAINTY_ASSIGNED_CONTEXT ( ( #148 ) ) GLOBAL_UNIT_ASSIGNED_CONTEXT ( ( #95, #110, #29 ) ) REPRESENTATION_CONTEXT ( 'NONE', 'WORKASPACE' ) );
#155 = APPROVAL_STATUS ( 'not_yet_approved' ) ;
#156 = DIRECTION ( 'NONE',  ( -0.0000000000000000000, -0.0000000000000000000, -1.000000000000000000 ) ) ;
#157 = CC_DESIGN_DATE_AND_TIME_ASSIGNMENT ( #33, #121, ( #152 ) ) ;
#158 = CIRCLE ( 'NONE', #102, 15.00000000000000000 ) ;
#159 = ADVANCED_FACE ( 'NONE', ( #112 ), #133, .T. ) ;
#160 = CC_DESIGN_PERSON_AND_ORGANIZATION_ASSIGNMENT ( #140, #39, ( #87 ) ) ;
#161 = APPROVAL_DATE_TIME ( #19, #24 ) ;
#162 = VERTEX_POINT ( 'NONE', #5 ) ;
#163 = COORDINATED_UNIVERSAL_TIME_OFFSET ( 5, 0, .BEHIND. ) ;
#164 = FACE_OUTER_BOUND ( 'NONE', #153, .T. ) ;
#165 = CARTESIAN_POINT ( 'NONE',  ( 0.0000000000000000000, 0.0000000000000000000, 3.000000000000000000 ) ) ;
#166 = COORDINATED_UNIVERSAL_TIME_OFFSET ( 5, 0, .BEHIND. ) ;
#167 = CARTESIAN_POINT ( 'NONE',  ( -15.00000000000000000, 0.0000000000000000000, 3.000000000000000000 ) ) ;
#168 = PERSON_AND_ORGANIZATION ( #3, #118 ) ;
#169 = PERSON_AND_ORGANIZATION ( #3, #118 ) ;
#170 = APPLICATION_CONTEXT ( 'configuration controlled 3d designs of mechanical parts and assemblies' ) ;
#171 = DIRECTION ( 'NONE',  ( -1.000000000000000000, 0.0000000000000000000, 0.0000000000000000000 ) ) ;
#172 = CARTESIAN_POINT ( 'NONE',  ( 0.0000000000000000000, 0.0000000000000000000, 3.000000000000000000 ) ) ;
#173 = APPLICATION_PROTOCOL_DEFINITION ( 'international standard', 'config_control_design', 1994, #65 ) ;
#174 = CALENDAR_DATE ( 2020, 7, 10 ) ;
#175 = ORIENTED_EDGE ( 'NONE', *, *, #116, .T. ) ;
ENDSEC;
END-ISO-10303-21;
