ISO-10303-21;
HEADER;
FILE_DESCRIPTION (( 'STEP AP203' ),
    '1' );
FILE_NAME ('34601_36949.step',
    '2017-08-24T13:13:59',
    ( '' ),
    ( '' ),
    'SwSTEP 2.0',
    'SolidWorks 2016',
    '' );
FILE_SCHEMA (( 'CONFIG_CONTROL_DESIGN' ));
ENDSEC;

DATA;
#1 = PRODUCT ( '34601_36949', '34601_36949', '', ( #18 ) ) ;
#2 = APPROVAL_DATE_TIME ( #158, #72 ) ;
#3 = FACE_OUTER_BOUND ( 'NONE', #30, .T. ) ;
#4 =( NAMED_UNIT ( * ) PLANE_ANGLE_UNIT ( ) SI_UNIT ( $, .RADIAN. ) );
#5 = AXIS2_PLACEMENT_3D ( 'NONE', #115, #135, #160 ) ;
#6 = DATE_TIME_ROLE ( 'classification_date' ) ;
#7 = COORDINATED_UNIVERSAL_TIME_OFFSET ( 5, 0, .BEHIND. ) ;
#8 = VERTEX_POINT ( 'NONE', #112 ) ;
#9 = PLANE ( 'NONE',  #5 ) ;
#10 = PRODUCT_RELATED_PRODUCT_CATEGORY ( 'detail', '', ( #1 ) ) ;
#11 = APPROVAL_DATE_TIME ( #65, #118 ) ;
#12 = PERSON_AND_ORGANIZATION ( #51, #93 ) ;
#13 = FACE_OUTER_BOUND ( 'NONE', #130, .T. ) ;
#14 = EDGE_LOOP ( 'NONE', ( #66, #159 ) ) ;
#15 =( LENGTH_UNIT ( ) NAMED_UNIT ( * ) SI_UNIT ( .MILLI., .METRE. ) );
#16 = APPROVAL_STATUS ( 'not_yet_approved' ) ;
#17 = APPROVAL_ROLE ( '' ) ;
#18 = MECHANICAL_CONTEXT ( 'NONE', #99, 'mechanical' ) ;
#19 = PERSON_AND_ORGANIZATION ( #51, #93 ) ;
#20 = EDGE_CURVE ( 'NONE', #136, #150, #142, .T. ) ;
#21 = DIRECTION ( 'NONE',  ( 0.0000000000000000000, 0.0000000000000000000, 1.000000000000000000 ) ) ;
#22 = DIRECTION ( 'NONE',  ( 1.000000000000000000, 0.0000000000000000000, 0.0000000000000000000 ) ) ;
#23 = DIRECTION ( 'NONE',  ( -0.0000000000000000000, -0.0000000000000000000, -1.000000000000000000 ) ) ;
#24 = AXIS2_PLACEMENT_3D ( 'NONE', #27, #144, #22 ) ;
#25 = CYLINDRICAL_SURFACE ( 'NONE', #45, 25.00000000000000000 ) ;
#26 = DIRECTION ( 'NONE',  ( -0.0000000000000000000, -0.0000000000000000000, -1.000000000000000000 ) ) ;
#27 = CARTESIAN_POINT ( 'NONE',  ( 0.0000000000000000000, 0.0000000000000000000, 3.000000000000000000 ) ) ;
#28 = CALENDAR_DATE ( 2017, 24, 8 ) ;
#29 = SHAPE_DEFINITION_REPRESENTATION ( #82, #41 ) ;
#30 = EDGE_LOOP ( 'NONE', ( #73, #153, #162, #145 ) ) ;
#31 = ADVANCED_FACE ( 'NONE', ( #32 ), #25, .T. ) ;
#32 = FACE_OUTER_BOUND ( 'NONE', #143, .T. ) ;
#33 = EDGE_CURVE ( 'NONE', #8, #110, #101, .T. ) ;
#34 = COORDINATED_UNIVERSAL_TIME_OFFSET ( 5, 0, .BEHIND. ) ;
#35 = ORIENTED_EDGE ( 'NONE', *, *, #92, .F. ) ;
#36 = APPLICATION_PROTOCOL_DEFINITION ( 'international standard', 'config_control_design', 1994, #111 ) ;
#37 = PERSON_AND_ORGANIZATION ( #51, #93 ) ;
#38 = AXIS2_PLACEMENT_3D ( 'NONE', #63, #106, #175 ) ;
#39 = CARTESIAN_POINT ( 'NONE',  ( 0.0000000000000000000, 0.0000000000000000000, 3.000000000000000000 ) ) ;
#40 = DIRECTION ( 'NONE',  ( 1.000000000000000000, 0.0000000000000000000, 0.0000000000000000000 ) ) ;
#41 = ADVANCED_BREP_SHAPE_REPRESENTATION ( '34601_36949', ( #59, #49 ), #54 ) ;
#42 = CARTESIAN_POINT ( 'NONE',  ( 0.0000000000000000000, 0.0000000000000000000, 3.000000000000000000 ) ) ;
#43 = DATE_AND_TIME ( #104, #81 ) ;
#44 = ORIENTED_EDGE ( 'NONE', *, *, #20, .T. ) ;
#45 = AXIS2_PLACEMENT_3D ( 'NONE', #86, #26, #55 ) ;
#46 = COORDINATED_UNIVERSAL_TIME_OFFSET ( 5, 0, .BEHIND. ) ;
#47 = COORDINATED_UNIVERSAL_TIME_OFFSET ( 5, 0, .BEHIND. ) ;
#48 =( NAMED_UNIT ( * ) SI_UNIT ( $, .STERADIAN. ) SOLID_ANGLE_UNIT ( ) );
#49 = AXIS2_PLACEMENT_3D ( 'NONE', #139, #94, #131 ) ;
#50 = DIRECTION ( 'NONE',  ( 0.0000000000000000000, 0.0000000000000000000, 1.000000000000000000 ) ) ;
#51 = PERSON ( 'UNSPECIFIED', 'UNSPECIFIED', 'UNSPECIFIED', ('UNSPECIFIED'), ('UNSPECIFIED'), ('UNSPECIFIED') ) ;
#52 = LOCAL_TIME ( 9, 13, 59.00000000000000000, #95 ) ;
#53 = PERSON_AND_ORGANIZATION_ROLE ( 'creator' ) ;
#54 =( GEOMETRIC_REPRESENTATION_CONTEXT ( 3 ) GLOBAL_UNCERTAINTY_ASSIGNED_CONTEXT ( ( #91 ) ) GLOBAL_UNIT_ASSIGNED_CONTEXT ( ( #15, #4, #48 ) ) REPRESENTATION_CONTEXT ( 'NONE', 'WORKASPACE' ) );
#55 = DIRECTION ( 'NONE',  ( -1.000000000000000000, 0.0000000000000000000, 0.0000000000000000000 ) ) ;
#56 = CARTESIAN_POINT ( 'NONE',  ( 0.0000000000000000000, 0.0000000000000000000, 0.0000000000000000000 ) ) ;
#57 = CARTESIAN_POINT ( 'NONE',  ( -25.00000000000000000, 0.0000000000000000000, 3.000000000000000000 ) ) ;
#58 = CALENDAR_DATE ( 2017, 24, 8 ) ;
#59 = MANIFOLD_SOLID_BREP ( 'Boss-Extrude1', #114 ) ;
#60 = SECURITY_CLASSIFICATION ( '', '', #168 ) ;
#61 = CIRCLE ( 'NONE', #24, 25.00000000000000000 ) ;
#62 = CARTESIAN_POINT ( 'NONE',  ( 25.00000000000000000, 3.061616997868383000E-015, 3.000000000000000000 ) ) ;
#63 = CARTESIAN_POINT ( 'NONE',  ( 0.0000000000000000000, 0.0000000000000000000, 3.000000000000000000 ) ) ;
#64 = DIRECTION ( 'NONE',  ( 1.000000000000000000, 0.0000000000000000000, 0.0000000000000000000 ) ) ;
#65 = DATE_AND_TIME ( #107, #79 ) ;
#66 = ORIENTED_EDGE ( 'NONE', *, *, #20, .F. ) ;
#67 = VECTOR ( 'NONE', #74, 1000.000000000000000 ) ;
#68 = APPROVAL_STATUS ( 'not_yet_approved' ) ;
#69 = LINE ( 'NONE', #170, #67 ) ;
#70 = DIRECTION ( 'NONE',  ( 0.0000000000000000000, 0.0000000000000000000, 1.000000000000000000 ) ) ;
#71 = FACE_OUTER_BOUND ( 'NONE', #14, .T. ) ;
#72 = APPROVAL ( #16, 'UNSPECIFIED' ) ;
#73 = ORIENTED_EDGE ( 'NONE', *, *, #33, .F. ) ;
#74 = DIRECTION ( 'NONE',  ( -0.0000000000000000000, -0.0000000000000000000, -1.000000000000000000 ) ) ;
#75 = AXIS2_PLACEMENT_3D ( 'NONE', #138, #50, #64 ) ;
#76 = PLANE ( 'NONE',  #38 ) ;
#77 = DESIGN_CONTEXT ( 'detailed design', #111, 'design' ) ;
#78 = ADVANCED_FACE ( 'NONE', ( #71 ), #9, .F. ) ;
#79 = LOCAL_TIME ( 9, 13, 59.00000000000000000, #46 ) ;
#80 = APPROVAL_DATE_TIME ( #121, #140 ) ;
#81 = LOCAL_TIME ( 9, 13, 59.00000000000000000, #47 ) ;
#82 = PRODUCT_DEFINITION_SHAPE ( 'NONE', 'NONE',  #164 ) ;
#83 = PERSON_AND_ORGANIZATION_ROLE ( 'creator' ) ;
#84 = CC_DESIGN_APPROVAL ( #140, ( #157 ) ) ;
#85 = APPROVAL_ROLE ( '' ) ;
#86 = CARTESIAN_POINT ( 'NONE',  ( 0.0000000000000000000, 0.0000000000000000000, 3.000000000000000000 ) ) ;
#87 = APPROVAL_PERSON_ORGANIZATION ( #126, #72, #85 ) ;
#88 = ORIENTED_EDGE ( 'NONE', *, *, #92, .T. ) ;
#89 = CC_DESIGN_APPROVAL ( #72, ( #164 ) ) ;
#90 = APPROVAL_PERSON_ORGANIZATION ( #116, #140, #169 ) ;
#91 = UNCERTAINTY_MEASURE_WITH_UNIT (LENGTH_MEASURE( 1.000000000000000100E-005 ), #15, 'distance_accuracy_value', 'NONE');
#92 = EDGE_CURVE ( 'NONE', #110, #8, #61, .T. ) ;
#93 = ORGANIZATION ( 'UNSPECIFIED', 'UNSPECIFIED', '' ) ;
#94 = DIRECTION ( 'NONE',  ( 0.0000000000000000000, 0.0000000000000000000, 1.000000000000000000 ) ) ;
#95 = COORDINATED_UNIVERSAL_TIME_OFFSET ( 5, 0, .BEHIND. ) ;
#96 = CC_DESIGN_PERSON_AND_ORGANIZATION_ASSIGNMENT ( #113, #129, ( #60 ) ) ;
#97 = PERSON_AND_ORGANIZATION_ROLE ( 'design_owner' ) ;
#98 = LOCAL_TIME ( 9, 13, 59.00000000000000000, #7 ) ;
#99 = APPLICATION_CONTEXT ( 'configuration controlled 3d designs of mechanical parts and assemblies' ) ;
#100 = CC_DESIGN_PERSON_AND_ORGANIZATION_ASSIGNMENT ( #19, #53, ( #164 ) ) ;
#101 = CIRCLE ( 'NONE', #166, 25.00000000000000000 ) ;
#102 = ORIENTED_EDGE ( 'NONE', *, *, #122, .T. ) ;
#103 = AXIS2_PLACEMENT_3D ( 'NONE', #56, #70, #40 ) ;
#104 = CALENDAR_DATE ( 2017, 24, 8 ) ;
#105 = CYLINDRICAL_SURFACE ( 'NONE', #117, 25.00000000000000000 ) ;
#106 = DIRECTION ( 'NONE',  ( 0.0000000000000000000, 0.0000000000000000000, 1.000000000000000000 ) ) ;
#107 = CALENDAR_DATE ( 2017, 24, 8 ) ;
#108 = CIRCLE ( 'NONE', #75, 25.00000000000000000 ) ;
#109 = ORIENTED_EDGE ( 'NONE', *, *, #33, .T. ) ;
#110 = VERTEX_POINT ( 'NONE', #57 ) ;
#111 = APPLICATION_CONTEXT ( 'configuration controlled 3d designs of mechanical parts and assemblies' ) ;
#112 = CARTESIAN_POINT ( 'NONE',  ( 25.00000000000000000, 3.061616997868383000E-015, 3.000000000000000000 ) ) ;
#113 = PERSON_AND_ORGANIZATION ( #51, #93 ) ;
#114 = CLOSED_SHELL ( 'NONE', ( #127, #31, #149, #78 ) ) ;
#115 = CARTESIAN_POINT ( 'NONE',  ( 0.0000000000000000000, 0.0000000000000000000, 0.0000000000000000000 ) ) ;
#116 = PERSON_AND_ORGANIZATION ( #51, #93 ) ;
#117 = AXIS2_PLACEMENT_3D ( 'NONE', #39, #119, #147 ) ;
#118 = APPROVAL ( #134, 'UNSPECIFIED' ) ;
#119 = DIRECTION ( 'NONE',  ( -0.0000000000000000000, -0.0000000000000000000, -1.000000000000000000 ) ) ;
#120 = LOCAL_TIME ( 9, 13, 59.00000000000000000, #34 ) ;
#121 = DATE_AND_TIME ( #58, #98 ) ;
#122 = EDGE_CURVE ( 'NONE', #110, #136, #69, .T. ) ;
#123 = CARTESIAN_POINT ( 'NONE',  ( -25.00000000000000000, 0.0000000000000000000, 0.0000000000000000000 ) ) ;
#124 = PERSON_AND_ORGANIZATION ( #51, #93 ) ;
#125 = CARTESIAN_POINT ( 'NONE',  ( 25.00000000000000000, 3.061616997868383000E-015, 0.0000000000000000000 ) ) ;
#126 = PERSON_AND_ORGANIZATION ( #51, #93 ) ;
#127 = ADVANCED_FACE ( 'NONE', ( #3 ), #105, .T. ) ;
#128 = EDGE_CURVE ( 'NONE', #8, #150, #167, .T. ) ;
#129 = PERSON_AND_ORGANIZATION_ROLE ( 'classification_officer' ) ;
#130 = EDGE_LOOP ( 'NONE', ( #88, #109 ) ) ;
#131 = DIRECTION ( 'NONE',  ( 1.000000000000000000, 0.0000000000000000000, 0.0000000000000000000 ) ) ;
#132 = APPLICATION_PROTOCOL_DEFINITION ( 'international standard', 'config_control_design', 1994, #99 ) ;
#133 = PERSON_AND_ORGANIZATION ( #51, #93 ) ;
#134 = APPROVAL_STATUS ( 'not_yet_approved' ) ;
#135 = DIRECTION ( 'NONE',  ( 0.0000000000000000000, 0.0000000000000000000, 1.000000000000000000 ) ) ;
#136 = VERTEX_POINT ( 'NONE', #123 ) ;
#137 = APPROVAL_PERSON_ORGANIZATION ( #133, #118, #17 ) ;
#138 = CARTESIAN_POINT ( 'NONE',  ( 0.0000000000000000000, 0.0000000000000000000, 0.0000000000000000000 ) ) ;
#139 = CARTESIAN_POINT ( 'NONE',  ( 0.0000000000000000000, 0.0000000000000000000, 0.0000000000000000000 ) ) ;
#140 = APPROVAL ( #68, 'UNSPECIFIED' ) ;
#141 = DATE_AND_TIME ( #28, #120 ) ;
#142 = CIRCLE ( 'NONE', #103, 25.00000000000000000 ) ;
#143 = EDGE_LOOP ( 'NONE', ( #173, #35, #102, #44 ) ) ;
#144 = DIRECTION ( 'NONE',  ( 0.0000000000000000000, 0.0000000000000000000, 1.000000000000000000 ) ) ;
#145 = ORIENTED_EDGE ( 'NONE', *, *, #122, .F. ) ;
#146 = CC_DESIGN_PERSON_AND_ORGANIZATION_ASSIGNMENT ( #124, #97, ( #1 ) ) ;
#147 = DIRECTION ( 'NONE',  ( -1.000000000000000000, 0.0000000000000000000, 0.0000000000000000000 ) ) ;
#148 = EDGE_CURVE ( 'NONE', #150, #136, #108, .T. ) ;
#149 = ADVANCED_FACE ( 'NONE', ( #13 ), #76, .T. ) ;
#150 = VERTEX_POINT ( 'NONE', #125 ) ;
#151 = PERSON_AND_ORGANIZATION_ROLE ( 'design_supplier' ) ;
#152 = CALENDAR_DATE ( 2017, 24, 8 ) ;
#153 = ORIENTED_EDGE ( 'NONE', *, *, #128, .T. ) ;
#154 = CC_DESIGN_PERSON_AND_ORGANIZATION_ASSIGNMENT ( #12, #151, ( #157 ) ) ;
#155 = DATE_TIME_ROLE ( 'creation_date' ) ;
#156 = DIRECTION ( 'NONE',  ( 1.000000000000000000, 0.0000000000000000000, 0.0000000000000000000 ) ) ;
#157 = PRODUCT_DEFINITION_FORMATION_WITH_SPECIFIED_SOURCE ( 'ANY', '', #1, .NOT_KNOWN. ) ;
#158 = DATE_AND_TIME ( #152, #52 ) ;
#159 = ORIENTED_EDGE ( 'NONE', *, *, #148, .F. ) ;
#160 = DIRECTION ( 'NONE',  ( 1.000000000000000000, 0.0000000000000000000, -0.0000000000000000000 ) ) ;
#161 = CC_DESIGN_DATE_AND_TIME_ASSIGNMENT ( #43, #155, ( #164 ) ) ;
#162 = ORIENTED_EDGE ( 'NONE', *, *, #148, .T. ) ;
#163 = CC_DESIGN_APPROVAL ( #118, ( #60 ) ) ;
#164 = PRODUCT_DEFINITION ( 'UNKNOWN', '', #157, #77 ) ;
#165 = VECTOR ( 'NONE', #23, 1000.000000000000000 ) ;
#166 = AXIS2_PLACEMENT_3D ( 'NONE', #42, #21, #156 ) ;
#167 = LINE ( 'NONE', #62, #165 ) ;
#168 = SECURITY_CLASSIFICATION_LEVEL ( 'unclassified' ) ;
#169 = APPROVAL_ROLE ( '' ) ;
#170 = CARTESIAN_POINT ( 'NONE',  ( -25.00000000000000000, 0.0000000000000000000, 3.000000000000000000 ) ) ;
#171 = CC_DESIGN_DATE_AND_TIME_ASSIGNMENT ( #141, #6, ( #60 ) ) ;
#172 = CC_DESIGN_SECURITY_CLASSIFICATION ( #60, ( #157 ) ) ;
#173 = ORIENTED_EDGE ( 'NONE', *, *, #128, .F. ) ;
#174 = CC_DESIGN_PERSON_AND_ORGANIZATION_ASSIGNMENT ( #37, #83, ( #157 ) ) ;
#175 = DIRECTION ( 'NONE',  ( 1.000000000000000000, 0.0000000000000000000, -0.0000000000000000000 ) ) ;
ENDSEC;
END-ISO-10303-21;
