ISO-10303-21;
HEADER;
FILE_DESCRIPTION (( 'STEP AP203' ),
    '1' );
FILE_NAME ('ISP Wedged Parts_16812.step',
    '2021-01-07T19:40:21',
    ( '' ),
    ( '' ),
    'SwSTEP 2.0',
    'SolidWorks 2018',
    '' );
FILE_SCHEMA (( 'CONFIG_CONTROL_DESIGN' ));
ENDSEC;

DATA;
#1 = PERSON_AND_ORGANIZATION ( #66, #153 ) ;
#2 = VECTOR ( 'NONE', #56, 1000.000000000000000 ) ;
#3 = ORIENTED_EDGE ( 'NONE', *, *, #131, .F. ) ;
#4 = APPROVAL_ROLE ( '' ) ;
#5 = CARTESIAN_POINT ( 'NONE',  ( 0.0000000000000000000, 0.0000000000000000000, 4.000000000000000000 ) ) ;
#6 = DIRECTION ( 'NONE',  ( 1.000000000000000000, 0.0000000000000000000, 0.0000000000000000000 ) ) ;
#7 = DIRECTION ( 'NONE',  ( 1.000000000000000000, 0.0000000000000000000, 0.0000000000000000000 ) ) ;
#8 = APPROVAL_ROLE ( '' ) ;
#9 = PERSON_AND_ORGANIZATION ( #66, #153 ) ;
#10 = ORIENTED_EDGE ( 'NONE', *, *, #133, .F. ) ;
#11 = PERSON_AND_ORGANIZATION ( #66, #153 ) ;
#12 = CYLINDRICAL_SURFACE ( 'NONE', #140, 12.69999999999999929 ) ;
#13 = DATE_AND_TIME ( #39, #129 ) ;
#14 = CC_DESIGN_DATE_AND_TIME_ASSIGNMENT ( #22, #111, ( #86 ) ) ;
#15 = COORDINATED_UNIVERSAL_TIME_OFFSET ( 5, 0, .BEHIND. ) ;
#16 = COORDINATED_UNIVERSAL_TIME_OFFSET ( 5, 0, .BEHIND. ) ;
#17 = CC_DESIGN_PERSON_AND_ORGANIZATION_ASSIGNMENT ( #119, #32, ( #95 ) ) ;
#18 = ORIENTED_EDGE ( 'NONE', *, *, #131, .T. ) ;
#19 = APPLICATION_CONTEXT ( 'configuration controlled 3d designs of mechanical parts and assemblies' ) ;
#20 = DIRECTION ( 'NONE',  ( 0.0000000000000000000, -0.9999619230641713097, 0.008726535498366492713 ) ) ;
#21 = CARTESIAN_POINT ( 'NONE',  ( 0.0000000000000000000, 0.0000000000000000000, 0.0000000000000000000 ) ) ;
#22 = DATE_AND_TIME ( #158, #53 ) ;
#23 = LINE ( 'NONE', #74, #35 ) ;
#24 = CC_DESIGN_APPROVAL ( #152, ( #92 ) ) ;
#25 = ORIENTED_EDGE ( 'NONE', *, *, #50, .F. ) ;
#26 =( GEOMETRIC_REPRESENTATION_CONTEXT ( 3 ) GLOBAL_UNCERTAINTY_ASSIGNED_CONTEXT ( ( #116 ) ) GLOBAL_UNIT_ASSIGNED_CONTEXT ( ( #94, #28, #41 ) ) REPRESENTATION_CONTEXT ( 'NONE', 'WORKASPACE' ) );
#27 = VERTEX_POINT ( 'NONE', #46 ) ;
#28 =( NAMED_UNIT ( * ) PLANE_ANGLE_UNIT ( ) SI_UNIT ( $, .RADIAN. ) );
#29 = APPLICATION_CONTEXT ( 'configuration controlled 3d designs of mechanical parts and assemblies' ) ;
#30 = APPROVAL_STATUS ( 'not_yet_approved' ) ;
#31 = ORIENTED_EDGE ( 'NONE', *, *, #65, .T. ) ;
#32 = PERSON_AND_ORGANIZATION_ROLE ( 'creator' ) ;
#33 = CIRCLE ( 'NONE', #113, 12.69999999999999929 ) ;
#34 = CC_DESIGN_APPROVAL ( #175, ( #86 ) ) ;
#35 = VECTOR ( 'NONE', #90, 1000.000000000000000 ) ;
#36 = DATE_AND_TIME ( #76, #84 ) ;
#37 = COORDINATED_UNIVERSAL_TIME_OFFSET ( 5, 0, .BEHIND. ) ;
#38 = SHAPE_DEFINITION_REPRESENTATION ( #115, #103 ) ;
#39 = CALENDAR_DATE ( 2021, 7, 1 ) ;
#40 = CC_DESIGN_APPROVAL ( #104, ( #95 ) ) ;
#41 =( NAMED_UNIT ( * ) SI_UNIT ( $, .STERADIAN. ) SOLID_ANGLE_UNIT ( ) );
#42 = CARTESIAN_POINT ( 'NONE',  ( -12.69999999999999929, 0.0000000000000000000, 4.000000000000000000 ) ) ;
#43 = EDGE_LOOP ( 'NONE', ( #10, #70, #51, #25 ) ) ;
#44 = DIRECTION ( 'NONE',  ( 0.0000000000000000000, 0.0000000000000000000, 1.000000000000000000 ) ) ;
#45 = SECURITY_CLASSIFICATION_LEVEL ( 'unclassified' ) ;
#46 = CARTESIAN_POINT ( 'NONE',  ( -12.69999999999999929, 0.0000000000000000000, 0.1108312209425420802 ) ) ;
#47 = ADVANCED_FACE ( 'NONE', ( #132 ), #88, .T. ) ;
#48 = COORDINATED_UNIVERSAL_TIME_OFFSET ( 5, 0, .BEHIND. ) ;
#49 = PERSON_AND_ORGANIZATION ( #66, #153 ) ;
#50 = EDGE_CURVE ( 'NONE', #146, #27, #23, .T. ) ;
#51 = ORIENTED_EDGE ( 'NONE', *, *, #120, .T. ) ;
#52 = CC_DESIGN_PERSON_AND_ORGANIZATION_ASSIGNMENT ( #49, #110, ( #86 ) ) ;
#53 = LOCAL_TIME ( 14, 40, 21.00000000000000000, #16 ) ;
#54 = DIRECTION ( 'NONE',  ( 0.0000000000000000000, 0.0000000000000000000, 1.000000000000000000 ) ) ;
#55 = DIRECTION ( 'NONE',  ( 0.0000000000000000000, 0.008726535498366494448, 0.9999619230641714207 ) ) ;
#56 = DIRECTION ( 'NONE',  ( -0.0000000000000000000, -0.0000000000000000000, -1.000000000000000000 ) ) ;
#57 = CARTESIAN_POINT ( 'NONE',  ( -12.69999999999999929, -12.69999999999999929, 0.2216624418850841882 ) ) ;
#58 = PERSON_AND_ORGANIZATION_ROLE ( 'classification_officer' ) ;
#59 = FACE_OUTER_BOUND ( 'NONE', #160, .T. ) ;
#60 = ADVANCED_FACE ( 'NONE', ( #91 ), #12, .T. ) ;
#61 = CARTESIAN_POINT ( 'NONE',  ( 12.69999999999999929, 1.555301434917138433E-15, 0.1108312209425420802 ) ) ;
#62 = DIRECTION ( 'NONE',  ( -1.000000000000000000, 0.0000000000000000000, 0.0000000000000000000 ) ) ;
#63 = EDGE_LOOP ( 'NONE', ( #147, #3, #101, #31 ) ) ;
#64 = VERTEX_POINT ( 'NONE', #134 ) ;
#65 = EDGE_CURVE ( 'NONE', #27, #93, #123, .T. ) ;
#66 = PERSON ( 'UNSPECIFIED', 'UNSPECIFIED', 'UNSPECIFIED', ('UNSPECIFIED'), ('UNSPECIFIED'), ('UNSPECIFIED') ) ;
#67 = ORIENTED_EDGE ( 'NONE', *, *, #120, .F. ) ;
#68 = DIRECTION ( 'NONE',  ( 0.0000000000000000000, 0.0000000000000000000, 1.000000000000000000 ) ) ;
#69 = CARTESIAN_POINT ( 'NONE',  ( 12.69999999999999929, 1.555301434917138433E-15, 0.1108312209425420802 ) ) ;
#70 = ORIENTED_EDGE ( 'NONE', *, *, #118, .T. ) ;
#71 = DIRECTION ( 'NONE',  ( 0.0000000000000000000, 0.0000000000000000000, 1.000000000000000000 ) ) ;
#72 = CARTESIAN_POINT ( 'NONE',  ( 0.0000000000000000000, 0.0000000000000000000, 4.000000000000000000 ) ) ;
#73 = LOCAL_TIME ( 14, 40, 21.00000000000000000, #15 ) ;
#74 = CARTESIAN_POINT ( 'NONE',  ( -12.69999999999999929, 0.0000000000000000000, 4.000000000000000000 ) ) ;
#75 = CC_DESIGN_SECURITY_CLASSIFICATION ( #92, ( #95 ) ) ;
#76 = CALENDAR_DATE ( 2021, 7, 1 ) ;
#77 = CARTESIAN_POINT ( 'NONE',  ( -12.70000000000000462, 25.39999999999999858, -0.1108312209425421080 ) ) ;
#78 = PLANE ( 'NONE',  #165 ) ;
#79 = APPROVAL_PERSON_ORGANIZATION ( #121, #175, #8 ) ;
#80 = CARTESIAN_POINT ( 'NONE',  ( 12.70000000000000995, 25.39999999999999858, -0.1108312209425420664 ) ) ;
#81 = CARTESIAN_POINT ( 'NONE',  ( -12.69999999999999929, 0.0000000000000000000, 0.1108312209425420802 ) ) ;
#82 = DATE_AND_TIME ( #125, #117 ) ;
#83 = AXIS2_PLACEMENT_3D ( 'NONE', #72, #114, #62 ) ;
#84 = LOCAL_TIME ( 14, 40, 21.00000000000000000, #102 ) ;
#85 = PERSON_AND_ORGANIZATION ( #66, #153 ) ;
#86 = PRODUCT_DEFINITION ( 'UNKNOWN', '', #95, #136 ) ;
#87 = AXIS2_PLACEMENT_3D ( 'NONE', #154, #68, #169 ) ;
#88 = CYLINDRICAL_SURFACE ( 'NONE', #83, 12.69999999999999929 ) ;
#89 = CIRCLE ( 'NONE', #87, 12.69999999999999929 ) ;
#90 = DIRECTION ( 'NONE',  ( -0.0000000000000000000, -0.0000000000000000000, -1.000000000000000000 ) ) ;
#91 = FACE_OUTER_BOUND ( 'NONE', #63, .T. ) ;
#92 = SECURITY_CLASSIFICATION ( '', '', #45 ) ;
#93 = VERTEX_POINT ( 'NONE', #105 ) ;
#94 =( LENGTH_UNIT ( ) NAMED_UNIT ( * ) SI_UNIT ( .MILLI., .METRE. ) );
#95 = PRODUCT_DEFINITION_FORMATION_WITH_SPECIFIED_SOURCE ( 'ANY', '', #124, .NOT_KNOWN. ) ;
#96 = APPROVAL_ROLE ( '' ) ;
#97 = CARTESIAN_POINT ( 'NONE',  ( -12.70000000000000462, -25.39999999999999858, 0.3324936628276262129 ) ) ;
#98 = PRODUCT_RELATED_PRODUCT_CATEGORY ( 'detail', '', ( #124 ) ) ;
#99 = DATE_AND_TIME ( #126, #73 ) ;
#100 = APPROVAL_DATE_TIME ( #36, #152 ) ;
#101 = ORIENTED_EDGE ( 'NONE', *, *, #50, .T. ) ;
#102 = COORDINATED_UNIVERSAL_TIME_OFFSET ( 5, 0, .BEHIND. ) ;
#103 = ADVANCED_BREP_SHAPE_REPRESENTATION ( 'ISP Wedged Parts_16812', ( #170, #137 ), #26 ) ;
#104 = APPROVAL ( #30, 'UNSPECIFIED' ) ;
#105 = CARTESIAN_POINT ( 'NONE',  ( 12.69999999999999929, 1.555301434917138433E-15, 0.1108312209425420802 ) ) ;
#106 = CARTESIAN_POINT ( 'NONE',  ( 12.69999999999999929, 1.555301434917138433E-15, 4.000000000000000000 ) ) ;
#107 = APPROVAL_DATE_TIME ( #99, #104 ) ;
#108 = APPLICATION_PROTOCOL_DEFINITION ( 'international standard', 'config_control_design', 1994, #19 ) ;
#109 = EDGE_LOOP ( 'NONE', ( #18, #139 ) ) ;
#110 = PERSON_AND_ORGANIZATION_ROLE ( 'creator' ) ;
#111 = DATE_TIME_ROLE ( 'creation_date' ) ;
#112 = CC_DESIGN_DATE_AND_TIME_ASSIGNMENT ( #13, #156, ( #92 ) ) ;
#113 = AXIS2_PLACEMENT_3D ( 'NONE', #5, #44, #7 ) ;
#114 = DIRECTION ( 'NONE',  ( -0.0000000000000000000, -0.0000000000000000000, -1.000000000000000000 ) ) ;
#115 = PRODUCT_DEFINITION_SHAPE ( 'NONE', 'NONE',  #86 ) ;
#116 = UNCERTAINTY_MEASURE_WITH_UNIT (LENGTH_MEASURE( 1.000000000000000082E-05 ), #94, 'distance_accuracy_value', 'NONE');
#117 = LOCAL_TIME ( 14, 40, 21.00000000000000000, #48 ) ;
#118 = EDGE_CURVE ( 'NONE', #64, #93, #174, .T. ) ;
#119 = PERSON_AND_ORGANIZATION ( #66, #153 ) ;
#120 = EDGE_CURVE ( 'NONE', #93, #27, #143, .T. ) ;
#121 = PERSON_AND_ORGANIZATION ( #66, #153 ) ;
#122 = DIRECTION ( 'NONE',  ( -0.0000000000000000000, -0.0000000000000000000, -1.000000000000000000 ) ) ;
#123 =( BOUNDED_CURVE ( )  B_SPLINE_CURVE ( 3, ( #81, #97, #171, #61 ),
 .UNSPECIFIED., .F., .F. ) 
 B_SPLINE_CURVE_WITH_KNOTS ( ( 4, 4 ),
 ( 1.570796326794896558, 4.712388980384689674 ),
 .UNSPECIFIED. ) 
 CURVE ( )  GEOMETRIC_REPRESENTATION_ITEM ( )  RATIONAL_B_SPLINE_CURVE ( ( 1.000000000000000000, 0.3333333333333333703, 0.3333333333333333703, 1.000000000000000000 ) ) 
 REPRESENTATION_ITEM ( '' )  );
#124 = PRODUCT ( 'ISP Wedged Parts_16812', 'ISP Wedged Parts_16812', '', ( #150 ) ) ;
#125 = CALENDAR_DATE ( 2021, 7, 1 ) ;
#126 = CALENDAR_DATE ( 2021, 7, 1 ) ;
#127 = CLOSED_SHELL ( 'NONE', ( #47, #60, #145, #159 ) ) ;
#128 = APPLICATION_PROTOCOL_DEFINITION ( 'international standard', 'config_control_design', 1994, #29 ) ;
#129 = LOCAL_TIME ( 14, 40, 21.00000000000000000, #37 ) ;
#130 = PERSON_AND_ORGANIZATION_ROLE ( 'design_supplier' ) ;
#131 = EDGE_CURVE ( 'NONE', #146, #64, #33, .T. ) ;
#132 = FACE_OUTER_BOUND ( 'NONE', #43, .T. ) ;
#133 = EDGE_CURVE ( 'NONE', #64, #146, #89, .T. ) ;
#134 = CARTESIAN_POINT ( 'NONE',  ( 12.69999999999999929, 1.555301434917138433E-15, 4.000000000000000000 ) ) ;
#135 = APPROVAL_PERSON_ORGANIZATION ( #9, #104, #96 ) ;
#136 = DESIGN_CONTEXT ( 'detailed design', #29, 'design' ) ;
#137 = AXIS2_PLACEMENT_3D ( 'NONE', #21, #54, #6 ) ;
#138 = DIRECTION ( 'NONE',  ( -1.000000000000000000, 0.0000000000000000000, 0.0000000000000000000 ) ) ;
#139 = ORIENTED_EDGE ( 'NONE', *, *, #133, .T. ) ;
#140 = AXIS2_PLACEMENT_3D ( 'NONE', #166, #122, #138 ) ;
#141 = APPROVAL_STATUS ( 'not_yet_approved' ) ;
#142 = CARTESIAN_POINT ( 'NONE',  ( 0.0000000000000000000, 0.0000000000000000000, 4.000000000000000000 ) ) ;
#143 =( BOUNDED_CURVE ( )  B_SPLINE_CURVE ( 3, ( #69, #80, #77, #151 ),
 .UNSPECIFIED., .F., .F. ) 
 B_SPLINE_CURVE_WITH_KNOTS ( ( 4, 4 ),
 ( 4.712388980384689674, 7.853981633974482790 ),
 .UNSPECIFIED. ) 
 CURVE ( )  GEOMETRIC_REPRESENTATION_ITEM ( )  RATIONAL_B_SPLINE_CURVE ( ( 1.000000000000000000, 0.3333333333333333703, 0.3333333333333333703, 1.000000000000000000 ) ) 
 REPRESENTATION_ITEM ( '' )  );
#144 = PERSON_AND_ORGANIZATION_ROLE ( 'design_owner' ) ;
#145 = ADVANCED_FACE ( 'NONE', ( #164 ), #168, .T. ) ;
#146 = VERTEX_POINT ( 'NONE', #42 ) ;
#147 = ORIENTED_EDGE ( 'NONE', *, *, #118, .F. ) ;
#148 = CC_DESIGN_PERSON_AND_ORGANIZATION_ASSIGNMENT ( #11, #130, ( #95 ) ) ;
#149 = PERSON_AND_ORGANIZATION ( #66, #153 ) ;
#150 = MECHANICAL_CONTEXT ( 'NONE', #19, 'mechanical' ) ;
#151 = CARTESIAN_POINT ( 'NONE',  ( -12.69999999999999929, 0.0000000000000000000, 0.1108312209425420802 ) ) ;
#152 = APPROVAL ( #173, 'UNSPECIFIED' ) ;
#153 = ORGANIZATION ( 'UNSPECIFIED', 'UNSPECIFIED', '' ) ;
#154 = CARTESIAN_POINT ( 'NONE',  ( 0.0000000000000000000, 0.0000000000000000000, 4.000000000000000000 ) ) ;
#155 = CC_DESIGN_PERSON_AND_ORGANIZATION_ASSIGNMENT ( #149, #58, ( #92 ) ) ;
#156 = DATE_TIME_ROLE ( 'classification_date' ) ;
#157 = AXIS2_PLACEMENT_3D ( 'NONE', #142, #71, #172 ) ;
#158 = CALENDAR_DATE ( 2021, 7, 1 ) ;
#159 = ADVANCED_FACE ( 'NONE', ( #59 ), #78, .F. ) ;
#160 = EDGE_LOOP ( 'NONE', ( #163, #67 ) ) ;
#161 = APPROVAL_DATE_TIME ( #82, #175 ) ;
#162 = CC_DESIGN_PERSON_AND_ORGANIZATION_ASSIGNMENT ( #85, #144, ( #124 ) ) ;
#163 = ORIENTED_EDGE ( 'NONE', *, *, #65, .F. ) ;
#164 = FACE_OUTER_BOUND ( 'NONE', #109, .T. ) ;
#165 = AXIS2_PLACEMENT_3D ( 'NONE', #57, #55, #20 ) ;
#166 = CARTESIAN_POINT ( 'NONE',  ( 0.0000000000000000000, 0.0000000000000000000, 4.000000000000000000 ) ) ;
#167 = APPROVAL_PERSON_ORGANIZATION ( #1, #152, #4 ) ;
#168 = PLANE ( 'NONE',  #157 ) ;
#169 = DIRECTION ( 'NONE',  ( 1.000000000000000000, 0.0000000000000000000, 0.0000000000000000000 ) ) ;
#170 = MANIFOLD_SOLID_BREP ( 'Cut-Extrude1', #127 ) ;
#171 = CARTESIAN_POINT ( 'NONE',  ( 12.69999999999999929, -25.39999999999999858, 0.3324936628276262129 ) ) ;
#172 = DIRECTION ( 'NONE',  ( 1.000000000000000000, 0.0000000000000000000, -0.0000000000000000000 ) ) ;
#173 = APPROVAL_STATUS ( 'not_yet_approved' ) ;
#174 = LINE ( 'NONE', #106, #2 ) ;
#175 = APPROVAL ( #141, 'UNSPECIFIED' ) ;
ENDSEC;
END-ISO-10303-21;
