ISO-10303-21;
HEADER;
FILE_DESCRIPTION (( 'STEP AP203' ),
    '1' );
FILE_NAME ('34600_36943.step',
    '2017-08-24T13:16:20',
    ( '' ),
    ( '' ),
    'SwSTEP 2.0',
    'SolidWorks 2016',
    '' );
FILE_SCHEMA (( 'CONFIG_CONTROL_DESIGN' ));
ENDSEC;

DATA;
#1 = DATE_AND_TIME ( #40, #168 ) ;
#2 =( NAMED_UNIT ( * ) PLANE_ANGLE_UNIT ( ) SI_UNIT ( $, .RADIAN. ) );
#3 = DIRECTION ( 'NONE',  ( 0.0000000000000000000, 0.0000000000000000000, 1.000000000000000000 ) ) ;
#4 = CARTESIAN_POINT ( 'NONE',  ( 25.00000000000000000, 3.061616997868383000E-015, 2.000000000000000000 ) ) ;
#5 = FACE_OUTER_BOUND ( 'NONE', #57, .T. ) ;
#6 = CC_DESIGN_APPROVAL ( #90, ( #93 ) ) ;
#7 =( GEOMETRIC_REPRESENTATION_CONTEXT ( 3 ) GLOBAL_UNCERTAINTY_ASSIGNED_CONTEXT ( ( #174 ) ) GLOBAL_UNIT_ASSIGNED_CONTEXT ( ( #33, #2, #108 ) ) REPRESENTATION_CONTEXT ( 'NONE', 'WORKASPACE' ) );
#8 = COORDINATED_UNIVERSAL_TIME_OFFSET ( 5, 0, .BEHIND. ) ;
#9 = LINE ( 'NONE', #84, #56 ) ;
#10 = EDGE_CURVE ( 'NONE', #161, #73, #42, .T. ) ;
#11 = CALENDAR_DATE ( 2017, 24, 8 ) ;
#12 = EDGE_LOOP ( 'NONE', ( #121, #169, #116, #59 ) ) ;
#13 = CARTESIAN_POINT ( 'NONE',  ( 0.0000000000000000000, 0.0000000000000000000, 0.0000000000000000000 ) ) ;
#14 = CARTESIAN_POINT ( 'NONE',  ( 0.0000000000000000000, 0.0000000000000000000, 2.000000000000000000 ) ) ;
#15 = APPROVAL_STATUS ( 'not_yet_approved' ) ;
#16 = CARTESIAN_POINT ( 'NONE',  ( 0.0000000000000000000, 0.0000000000000000000, 2.000000000000000000 ) ) ;
#17 = APPROVAL_STATUS ( 'not_yet_approved' ) ;
#18 = EDGE_CURVE ( 'NONE', #145, #161, #94, .T. ) ;
#19 = PLANE ( 'NONE',  #120 ) ;
#20 = FACE_OUTER_BOUND ( 'NONE', #12, .T. ) ;
#21 = CC_DESIGN_APPROVAL ( #74, ( #99 ) ) ;
#22 = CC_DESIGN_DATE_AND_TIME_ASSIGNMENT ( #171, #135, ( #99 ) ) ;
#23 = DESIGN_CONTEXT ( 'detailed design', #148, 'design' ) ;
#24 = CALENDAR_DATE ( 2017, 24, 8 ) ;
#25 = CC_DESIGN_DATE_AND_TIME_ASSIGNMENT ( #140, #146, ( #93 ) ) ;
#26 = ORGANIZATION ( 'UNSPECIFIED', 'UNSPECIFIED', '' ) ;
#27 = DIRECTION ( 'NONE',  ( -0.0000000000000000000, -0.0000000000000000000, -1.000000000000000000 ) ) ;
#28 = DIRECTION ( 'NONE',  ( 1.000000000000000000, 0.0000000000000000000, 0.0000000000000000000 ) ) ;
#29 = FACE_OUTER_BOUND ( 'NONE', #119, .T. ) ;
#30 = LOCAL_TIME ( 9, 16, 20.00000000000000000, #54 ) ;
#31 = EDGE_CURVE ( 'NONE', #73, #81, #50, .T. ) ;
#32 = CARTESIAN_POINT ( 'NONE',  ( 0.0000000000000000000, 0.0000000000000000000, 0.0000000000000000000 ) ) ;
#33 =( LENGTH_UNIT ( ) NAMED_UNIT ( * ) SI_UNIT ( .MILLI., .METRE. ) );
#34 = APPLICATION_PROTOCOL_DEFINITION ( 'international standard', 'config_control_design', 1994, #148 ) ;
#35 = CALENDAR_DATE ( 2017, 24, 8 ) ;
#36 = ADVANCED_FACE ( 'NONE', ( #5 ), #143, .T. ) ;
#37 = AXIS2_PLACEMENT_3D ( 'NONE', #13, #106, #28 ) ;
#38 = LOCAL_TIME ( 9, 16, 20.00000000000000000, #8 ) ;
#39 = ADVANCED_BREP_SHAPE_REPRESENTATION ( '34600_36943', ( #61, #43 ), #7 ) ;
#40 = CALENDAR_DATE ( 2017, 24, 8 ) ;
#41 = CARTESIAN_POINT ( 'NONE',  ( 0.0000000000000000000, 0.0000000000000000000, 2.000000000000000000 ) ) ;
#42 = LINE ( 'NONE', #82, #44 ) ;
#43 = AXIS2_PLACEMENT_3D ( 'NONE', #32, #60, #110 ) ;
#44 = VECTOR ( 'NONE', #159, 1000.000000000000000 ) ;
#45 = DIRECTION ( 'NONE',  ( -0.0000000000000000000, -0.0000000000000000000, -1.000000000000000000 ) ) ;
#46 = APPROVAL_STATUS ( 'not_yet_approved' ) ;
#47 = DIRECTION ( 'NONE',  ( 1.000000000000000000, 0.0000000000000000000, 0.0000000000000000000 ) ) ;
#48 = APPROVAL_PERSON_ORGANIZATION ( #113, #111, #65 ) ;
#49 = AXIS2_PLACEMENT_3D ( 'NONE', #16, #45, #167 ) ;
#50 = CIRCLE ( 'NONE', #37, 25.00000000000000000 ) ;
#51 = PERSON_AND_ORGANIZATION_ROLE ( 'classification_officer' ) ;
#52 = ADVANCED_FACE ( 'NONE', ( #20 ), #87, .T. ) ;
#53 = ORIENTED_EDGE ( 'NONE', *, *, #31, .T. ) ;
#54 = COORDINATED_UNIVERSAL_TIME_OFFSET ( 5, 0, .BEHIND. ) ;
#55 = FACE_OUTER_BOUND ( 'NONE', #80, .T. ) ;
#56 = VECTOR ( 'NONE', #164, 1000.000000000000000 ) ;
#57 = EDGE_LOOP ( 'NONE', ( #172, #67, #122, #53 ) ) ;
#58 = DIRECTION ( 'NONE',  ( 1.000000000000000000, 0.0000000000000000000, 0.0000000000000000000 ) ) ;
#59 = ORIENTED_EDGE ( 'NONE', *, *, #10, .F. ) ;
#60 = DIRECTION ( 'NONE',  ( 0.0000000000000000000, 0.0000000000000000000, 1.000000000000000000 ) ) ;
#61 = MANIFOLD_SOLID_BREP ( 'Boss-Extrude1', #100 ) ;
#62 = AXIS2_PLACEMENT_3D ( 'NONE', #14, #115, #47 ) ;
#63 = APPROVAL_PERSON_ORGANIZATION ( #160, #74, #138 ) ;
#64 = ORIENTED_EDGE ( 'NONE', *, *, #107, .F. ) ;
#65 = APPROVAL_ROLE ( '' ) ;
#66 = DIRECTION ( 'NONE',  ( 1.000000000000000000, 0.0000000000000000000, -0.0000000000000000000 ) ) ;
#67 = ORIENTED_EDGE ( 'NONE', *, *, #85, .F. ) ;
#68 = PRODUCT_DEFINITION_SHAPE ( 'NONE', 'NONE',  #93 ) ;
#69 = LOCAL_TIME ( 9, 16, 20.00000000000000000, #129 ) ;
#70 = CIRCLE ( 'NONE', #103, 25.00000000000000000 ) ;
#71 = PERSON_AND_ORGANIZATION ( #91, #26 ) ;
#72 = DIRECTION ( 'NONE',  ( -1.000000000000000000, 0.0000000000000000000, 0.0000000000000000000 ) ) ;
#73 = VERTEX_POINT ( 'NONE', #88 ) ;
#74 = APPROVAL ( #15, 'UNSPECIFIED' ) ;
#75 = PERSON_AND_ORGANIZATION ( #91, #26 ) ;
#76 = DIRECTION ( 'NONE',  ( 1.000000000000000000, 0.0000000000000000000, -0.0000000000000000000 ) ) ;
#77 = APPLICATION_CONTEXT ( 'configuration controlled 3d designs of mechanical parts and assemblies' ) ;
#78 = MECHANICAL_CONTEXT ( 'NONE', #77, 'mechanical' ) ;
#79 = APPROVAL_DATE_TIME ( #109, #111 ) ;
#80 = EDGE_LOOP ( 'NONE', ( #155, #64 ) ) ;
#81 = VERTEX_POINT ( 'NONE', #86 ) ;
#82 = CARTESIAN_POINT ( 'NONE',  ( -25.00000000000000000, 0.0000000000000000000, 2.000000000000000000 ) ) ;
#83 = CARTESIAN_POINT ( 'NONE',  ( 0.0000000000000000000, 0.0000000000000000000, 0.0000000000000000000 ) ) ;
#84 = CARTESIAN_POINT ( 'NONE',  ( 25.00000000000000000, 3.061616997868383000E-015, 2.000000000000000000 ) ) ;
#85 = EDGE_CURVE ( 'NONE', #161, #145, #114, .T. ) ;
#86 = CARTESIAN_POINT ( 'NONE',  ( 25.00000000000000000, 3.061616997868383000E-015, 0.0000000000000000000 ) ) ;
#87 = CYLINDRICAL_SURFACE ( 'NONE', #49, 25.00000000000000000 ) ;
#88 = CARTESIAN_POINT ( 'NONE',  ( -25.00000000000000000, 0.0000000000000000000, 0.0000000000000000000 ) ) ;
#89 = APPLICATION_PROTOCOL_DEFINITION ( 'international standard', 'config_control_design', 1994, #77 ) ;
#90 = APPROVAL ( #17, 'UNSPECIFIED' ) ;
#91 = PERSON ( 'UNSPECIFIED', 'UNSPECIFIED', 'UNSPECIFIED', ('UNSPECIFIED'), ('UNSPECIFIED'), ('UNSPECIFIED') ) ;
#92 = APPROVAL_DATE_TIME ( #1, #90 ) ;
#93 = PRODUCT_DEFINITION ( 'UNKNOWN', '', #117, #23 ) ;
#94 = CIRCLE ( 'NONE', #162, 25.00000000000000000 ) ;
#95 = PERSON_AND_ORGANIZATION ( #91, #26 ) ;
#96 = CARTESIAN_POINT ( 'NONE',  ( 0.0000000000000000000, 0.0000000000000000000, 2.000000000000000000 ) ) ;
#97 = APPROVAL_DATE_TIME ( #142, #74 ) ;
#98 = PERSON_AND_ORGANIZATION_ROLE ( 'design_owner' ) ;
#99 = SECURITY_CLASSIFICATION ( '', '', #126 ) ;
#100 = CLOSED_SHELL ( 'NONE', ( #52, #36, #152, #112 ) ) ;
#101 = APPROVAL_PERSON_ORGANIZATION ( #104, #90, #137 ) ;
#102 = CC_DESIGN_PERSON_AND_ORGANIZATION_ASSIGNMENT ( #175, #125, ( #93 ) ) ;
#103 = AXIS2_PLACEMENT_3D ( 'NONE', #134, #124, #147 ) ;
#104 = PERSON_AND_ORGANIZATION ( #91, #26 ) ;
#105 = LOCAL_TIME ( 9, 16, 20.00000000000000000, #118 ) ;
#106 = DIRECTION ( 'NONE',  ( 0.0000000000000000000, 0.0000000000000000000, 1.000000000000000000 ) ) ;
#107 = EDGE_CURVE ( 'NONE', #81, #73, #70, .T. ) ;
#108 =( NAMED_UNIT ( * ) SI_UNIT ( $, .STERADIAN. ) SOLID_ANGLE_UNIT ( ) );
#109 = DATE_AND_TIME ( #11, #69 ) ;
#110 = DIRECTION ( 'NONE',  ( 1.000000000000000000, 0.0000000000000000000, 0.0000000000000000000 ) ) ;
#111 = APPROVAL ( #46, 'UNSPECIFIED' ) ;
#112 = ADVANCED_FACE ( 'NONE', ( #55 ), #133, .F. ) ;
#113 = PERSON_AND_ORGANIZATION ( #91, #26 ) ;
#114 = CIRCLE ( 'NONE', #62, 25.00000000000000000 ) ;
#115 = DIRECTION ( 'NONE',  ( 0.0000000000000000000, 0.0000000000000000000, 1.000000000000000000 ) ) ;
#116 = ORIENTED_EDGE ( 'NONE', *, *, #107, .T. ) ;
#117 = PRODUCT_DEFINITION_FORMATION_WITH_SPECIFIED_SOURCE ( 'ANY', '', #154, .NOT_KNOWN. ) ;
#118 = COORDINATED_UNIVERSAL_TIME_OFFSET ( 5, 0, .BEHIND. ) ;
#119 = EDGE_LOOP ( 'NONE', ( #127, #156 ) ) ;
#120 = AXIS2_PLACEMENT_3D ( 'NONE', #96, #163, #76 ) ;
#121 = ORIENTED_EDGE ( 'NONE', *, *, #18, .F. ) ;
#122 = ORIENTED_EDGE ( 'NONE', *, *, #10, .T. ) ;
#123 = CARTESIAN_POINT ( 'NONE',  ( 0.0000000000000000000, 0.0000000000000000000, 2.000000000000000000 ) ) ;
#124 = DIRECTION ( 'NONE',  ( 0.0000000000000000000, 0.0000000000000000000, 1.000000000000000000 ) ) ;
#125 = PERSON_AND_ORGANIZATION_ROLE ( 'creator' ) ;
#126 = SECURITY_CLASSIFICATION_LEVEL ( 'unclassified' ) ;
#127 = ORIENTED_EDGE ( 'NONE', *, *, #85, .T. ) ;
#128 = CC_DESIGN_APPROVAL ( #111, ( #117 ) ) ;
#129 = COORDINATED_UNIVERSAL_TIME_OFFSET ( 5, 0, .BEHIND. ) ;
#130 = CALENDAR_DATE ( 2017, 24, 8 ) ;
#131 = DIRECTION ( 'NONE',  ( 0.0000000000000000000, 0.0000000000000000000, 1.000000000000000000 ) ) ;
#132 = CC_DESIGN_PERSON_AND_ORGANIZATION_ASSIGNMENT ( #75, #150, ( #117 ) ) ;
#133 = PLANE ( 'NONE',  #173 ) ;
#134 = CARTESIAN_POINT ( 'NONE',  ( 0.0000000000000000000, 0.0000000000000000000, 0.0000000000000000000 ) ) ;
#135 = DATE_TIME_ROLE ( 'classification_date' ) ;
#136 = CC_DESIGN_PERSON_AND_ORGANIZATION_ASSIGNMENT ( #71, #149, ( #117 ) ) ;
#137 = APPROVAL_ROLE ( '' ) ;
#138 = APPROVAL_ROLE ( '' ) ;
#139 = SHAPE_DEFINITION_REPRESENTATION ( #68, #39 ) ;
#140 = DATE_AND_TIME ( #24, #105 ) ;
#141 = AXIS2_PLACEMENT_3D ( 'NONE', #123, #27, #72 ) ;
#142 = DATE_AND_TIME ( #35, #38 ) ;
#143 = CYLINDRICAL_SURFACE ( 'NONE', #141, 25.00000000000000000 ) ;
#144 = CC_DESIGN_PERSON_AND_ORGANIZATION_ASSIGNMENT ( #95, #98, ( #154 ) ) ;
#145 = VERTEX_POINT ( 'NONE', #4 ) ;
#146 = DATE_TIME_ROLE ( 'creation_date' ) ;
#147 = DIRECTION ( 'NONE',  ( 1.000000000000000000, 0.0000000000000000000, 0.0000000000000000000 ) ) ;
#148 = APPLICATION_CONTEXT ( 'configuration controlled 3d designs of mechanical parts and assemblies' ) ;
#149 = PERSON_AND_ORGANIZATION_ROLE ( 'design_supplier' ) ;
#150 = PERSON_AND_ORGANIZATION_ROLE ( 'creator' ) ;
#151 = CC_DESIGN_PERSON_AND_ORGANIZATION_ASSIGNMENT ( #157, #51, ( #99 ) ) ;
#152 = ADVANCED_FACE ( 'NONE', ( #29 ), #19, .T. ) ;
#153 = COORDINATED_UNIVERSAL_TIME_OFFSET ( 5, 0, .BEHIND. ) ;
#154 = PRODUCT ( '34600_36943', '34600_36943', '', ( #78 ) ) ;
#155 = ORIENTED_EDGE ( 'NONE', *, *, #31, .F. ) ;
#156 = ORIENTED_EDGE ( 'NONE', *, *, #18, .T. ) ;
#157 = PERSON_AND_ORGANIZATION ( #91, #26 ) ;
#158 = CC_DESIGN_SECURITY_CLASSIFICATION ( #99, ( #117 ) ) ;
#159 = DIRECTION ( 'NONE',  ( -0.0000000000000000000, -0.0000000000000000000, -1.000000000000000000 ) ) ;
#160 = PERSON_AND_ORGANIZATION ( #91, #26 ) ;
#161 = VERTEX_POINT ( 'NONE', #166 ) ;
#162 = AXIS2_PLACEMENT_3D ( 'NONE', #41, #131, #58 ) ;
#163 = DIRECTION ( 'NONE',  ( 0.0000000000000000000, 0.0000000000000000000, 1.000000000000000000 ) ) ;
#164 = DIRECTION ( 'NONE',  ( -0.0000000000000000000, -0.0000000000000000000, -1.000000000000000000 ) ) ;
#165 = EDGE_CURVE ( 'NONE', #145, #81, #9, .T. ) ;
#166 = CARTESIAN_POINT ( 'NONE',  ( -25.00000000000000000, 0.0000000000000000000, 2.000000000000000000 ) ) ;
#167 = DIRECTION ( 'NONE',  ( -1.000000000000000000, 0.0000000000000000000, 0.0000000000000000000 ) ) ;
#168 = LOCAL_TIME ( 9, 16, 20.00000000000000000, #153 ) ;
#169 = ORIENTED_EDGE ( 'NONE', *, *, #165, .T. ) ;
#170 = PRODUCT_RELATED_PRODUCT_CATEGORY ( 'detail', '', ( #154 ) ) ;
#171 = DATE_AND_TIME ( #130, #30 ) ;
#172 = ORIENTED_EDGE ( 'NONE', *, *, #165, .F. ) ;
#173 = AXIS2_PLACEMENT_3D ( 'NONE', #83, #3, #66 ) ;
#174 = UNCERTAINTY_MEASURE_WITH_UNIT (LENGTH_MEASURE( 1.000000000000000100E-005 ), #33, 'distance_accuracy_value', 'NONE');
#175 = PERSON_AND_ORGANIZATION ( #91, #26 ) ;
ENDSEC;
END-ISO-10303-21;
