ISO-10303-21;
HEADER;
FILE_DESCRIPTION (( 'STEP AP203' ),
    '1' );
FILE_NAME ('Web Model 46099_48925.step',
    '2017-03-01T20:52:20',
    ( '' ),
    ( '' ),
    'SwSTEP 2.0',
    'SolidWorks 2016',
    '' );
FILE_SCHEMA (( 'CONFIG_CONTROL_DESIGN' ));
ENDSEC;

DATA;
#1 = VERTEX_POINT ( 'NONE', #179 ) ;
#2 = CC_DESIGN_PERSON_AND_ORGANIZATION_ASSIGNMENT ( #50, #233, ( #123 ) ) ;
#3 = COORDINATED_UNIVERSAL_TIME_OFFSET ( 5, 0, .BEHIND. ) ;
#4 = CARTESIAN_POINT ( 'NONE',  ( -25.39999999999999100, -25.39999999999999100, 1.000000000000000000 ) ) ;
#5 = PLANE ( 'NONE',  #37 ) ;
#6 = CARTESIAN_POINT ( 'NONE',  ( 25.39999999999999900, 25.39999999999999100, 1.000000000000000000 ) ) ;
#7 = PLANE ( 'NONE',  #234 ) ;
#8 = CARTESIAN_POINT ( 'NONE',  ( 0.0000000000000000000, 0.0000000000000000000, 1.000000000000000000 ) ) ;
#9 = VECTOR ( 'NONE', #75, 1000.000000000000000 ) ;
#10 = CARTESIAN_POINT ( 'NONE',  ( 25.39999999999999900, 25.39999999999999100, 1.000000000000000000 ) ) ;
#11 = DATE_AND_TIME ( #54, #111 ) ;
#12 = APPLICATION_CONTEXT ( 'configuration controlled 3d designs of mechanical parts and assemblies' ) ;
#13 = APPROVAL_STATUS ( 'not_yet_approved' ) ;
#14 = PLANE ( 'NONE',  #92 ) ;
#15 = VECTOR ( 'NONE', #74, 1000.000000000000000 ) ;
#16 = PERSON_AND_ORGANIZATION ( #169, #226 ) ;
#17 = CC_DESIGN_DATE_AND_TIME_ASSIGNMENT ( #96, #126, ( #123 ) ) ;
#18 = AXIS2_PLACEMENT_3D ( 'NONE', #143, #40, #43 ) ;
#19 = CLOSED_SHELL ( 'NONE', ( #205, #47, #114, #221, #33, #172 ) ) ;
#20 = LINE ( 'NONE', #4, #113 ) ;
#21 = PERSON_AND_ORGANIZATION ( #169, #226 ) ;
#22 = CARTESIAN_POINT ( 'NONE',  ( -25.39999999999999900, 25.39999999999999900, 0.0000000000000000000 ) ) ;
#23 = DIRECTION ( 'NONE',  ( -1.000000000000000000, 1.365923996832131600E-016, -0.0000000000000000000 ) ) ;
#24 = LINE ( 'NONE', #56, #65 ) ;
#25 = CARTESIAN_POINT ( 'NONE',  ( 25.40000000000000600, -25.39999999999998400, 0.0000000000000000000 ) ) ;
#26 = COORDINATED_UNIVERSAL_TIME_OFFSET ( 5, 0, .BEHIND. ) ;
#27 = DIRECTION ( 'NONE',  ( -0.0000000000000000000, 0.0000000000000000000, 1.000000000000000000 ) ) ;
#28 = CARTESIAN_POINT ( 'NONE',  ( 0.0000000000000000000, 0.0000000000000000000, 0.0000000000000000000 ) ) ;
#29 = APPROVAL ( #13, 'UNSPECIFIED' ) ;
#30 = APPROVAL_STATUS ( 'not_yet_approved' ) ;
#31 = LINE ( 'NONE', #161, #224 ) ;
#32 = UNCERTAINTY_MEASURE_WITH_UNIT (LENGTH_MEASURE( 1.000000000000000100E-005 ), #176, 'distance_accuracy_value', 'NONE');
#33 = ADVANCED_FACE ( 'NONE', ( #57 ), #7, .T. ) ;
#34 = FACE_OUTER_BOUND ( 'NONE', #48, .T. ) ;
#35 = VERTEX_POINT ( 'NONE', #142 ) ;
#36 = CC_DESIGN_APPROVAL ( #29, ( #123 ) ) ;
#37 = AXIS2_PLACEMENT_3D ( 'NONE', #6, #159, #158 ) ;
#38 = DIRECTION ( 'NONE',  ( 1.365923996832131900E-016, -1.000000000000000000, 0.0000000000000000000 ) ) ;
#39 = CARTESIAN_POINT ( 'NONE',  ( -25.39999999999999100, -25.39999999999999100, 1.000000000000000000 ) ) ;
#40 = DIRECTION ( 'NONE',  ( -1.365923996832131600E-016, 1.000000000000000000, 0.0000000000000000000 ) ) ;
#41 = CC_DESIGN_DATE_AND_TIME_ASSIGNMENT ( #59, #183, ( #107 ) ) ;
#42 = DIRECTION ( 'NONE',  ( 1.000000000000000000, 1.365923996832131900E-016, -0.0000000000000000000 ) ) ;
#43 = DIRECTION ( 'NONE',  ( -1.000000000000000000, -1.365923996832131600E-016, 0.0000000000000000000 ) ) ;
#44 =( NAMED_UNIT ( * ) SI_UNIT ( $, .STERADIAN. ) SOLID_ANGLE_UNIT ( ) );
#45 = PERSON_AND_ORGANIZATION_ROLE ( 'creator' ) ;
#46 = PERSON_AND_ORGANIZATION ( #169, #226 ) ;
#47 = ADVANCED_FACE ( 'NONE', ( #34 ), #213, .F. ) ;
#48 = EDGE_LOOP ( 'NONE', ( #150, #223, #85, #127 ) ) ;
#49 = ADVANCED_BREP_SHAPE_REPRESENTATION ( 'Web Model 46099_48925', ( #152, #80 ), #106 ) ;
#50 = PERSON_AND_ORGANIZATION ( #169, #226 ) ;
#51 = CC_DESIGN_SECURITY_CLASSIFICATION ( #123, ( #53 ) ) ;
#52 = EDGE_CURVE ( 'NONE', #97, #184, #140, .T. ) ;
#53 = PRODUCT_DEFINITION_FORMATION_WITH_SPECIFIED_SOURCE ( 'ANY', '', #149, .NOT_KNOWN. ) ;
#54 = CALENDAR_DATE ( 2017, 1, 3 ) ;
#55 = DIRECTION ( 'NONE',  ( -1.365923996832132300E-016, 1.000000000000000000, -0.0000000000000000000 ) ) ;
#56 = CARTESIAN_POINT ( 'NONE',  ( -25.39999999999999900, 25.39999999999999900, 1.000000000000000000 ) ) ;
#57 = FACE_OUTER_BOUND ( 'NONE', #128, .T. ) ;
#58 = DIRECTION ( 'NONE',  ( -0.0000000000000000000, -0.0000000000000000000, -1.000000000000000000 ) ) ;
#59 = DATE_AND_TIME ( #115, #170 ) ;
#60 = APPLICATION_PROTOCOL_DEFINITION ( 'international standard', 'config_control_design', 1994, #84 ) ;
#61 = PRODUCT_RELATED_PRODUCT_CATEGORY ( 'detail', '', ( #149 ) ) ;
#62 = APPROVAL_STATUS ( 'not_yet_approved' ) ;
#63 = CARTESIAN_POINT ( 'NONE',  ( -25.39999999999999100, -25.39999999999999100, 1.000000000000000000 ) ) ;
#64 = AXIS2_PLACEMENT_3D ( 'NONE', #189, #69, #190 ) ;
#65 = VECTOR ( 'NONE', #177, 1000.000000000000000 ) ;
#66 = EDGE_CURVE ( 'NONE', #184, #1, #186, .T. ) ;
#67 = APPROVAL ( #62, 'UNSPECIFIED' ) ;
#68 = APPROVAL_DATE_TIME ( #122, #120 ) ;
#69 = DIRECTION ( 'NONE',  ( -0.0000000000000000000, 0.0000000000000000000, 1.000000000000000000 ) ) ;
#70 = ORIENTED_EDGE ( 'NONE', *, *, #52, .F. ) ;
#71 = VECTOR ( 'NONE', #193, 1000.000000000000000 ) ;
#72 = APPROVAL_PERSON_ORGANIZATION ( #130, #120, #166 ) ;
#73 = VERTEX_POINT ( 'NONE', #39 ) ;
#74 = DIRECTION ( 'NONE',  ( -0.0000000000000000000, -0.0000000000000000000, -1.000000000000000000 ) ) ;
#75 = DIRECTION ( 'NONE',  ( 1.000000000000000000, 1.365923996832131600E-016, 0.0000000000000000000 ) ) ;
#76 = ORIENTED_EDGE ( 'NONE', *, *, #81, .T. ) ;
#77 = DIRECTION ( 'NONE',  ( -1.000000000000000000, 1.365923996832131600E-016, -0.0000000000000000000 ) ) ;
#78 = FACE_OUTER_BOUND ( 'NONE', #89, .T. ) ;
#79 = CARTESIAN_POINT ( 'NONE',  ( 25.39999999999999900, 25.39999999999999100, 1.000000000000000000 ) ) ;
#80 = AXIS2_PLACEMENT_3D ( 'NONE', #28, #216, #103 ) ;
#81 = EDGE_CURVE ( 'NONE', #1, #227, #31, .T. ) ;
#82 = CC_DESIGN_APPROVAL ( #67, ( #53 ) ) ;
#83 = EDGE_LOOP ( 'NONE', ( #206, #124, #185, #222 ) ) ;
#84 = APPLICATION_CONTEXT ( 'configuration controlled 3d designs of mechanical parts and assemblies' ) ;
#85 = ORIENTED_EDGE ( 'NONE', *, *, #199, .F. ) ;
#86 = PERSON_AND_ORGANIZATION_ROLE ( 'creator' ) ;
#87 = VECTOR ( 'NONE', #98, 1000.000000000000000 ) ;
#88 = DESIGN_CONTEXT ( 'detailed design', #12, 'design' ) ;
#89 = EDGE_LOOP ( 'NONE', ( #133, #155, #70, #99 ) ) ;
#90 = VERTEX_POINT ( 'NONE', #25 ) ;
#91 = APPROVAL_DATE_TIME ( #147, #29 ) ;
#92 = AXIS2_PLACEMENT_3D ( 'NONE', #162, #42, #182 ) ;
#93 = CC_DESIGN_PERSON_AND_ORGANIZATION_ASSIGNMENT ( #180, #125, ( #149 ) ) ;
#94 = EDGE_CURVE ( 'NONE', #184, #181, #229, .T. ) ;
#95 = CC_DESIGN_PERSON_AND_ORGANIZATION_ASSIGNMENT ( #157, #86, ( #53 ) ) ;
#96 = DATE_AND_TIME ( #154, #200 ) ;
#97 = VERTEX_POINT ( 'NONE', #141 ) ;
#98 = DIRECTION ( 'NONE',  ( -1.365923996832132300E-016, 1.000000000000000000, -0.0000000000000000000 ) ) ;
#99 = ORIENTED_EDGE ( 'NONE', *, *, #188, .T. ) ;
#100 = ORIENTED_EDGE ( 'NONE', *, *, #199, .T. ) ;
#101 = FACE_OUTER_BOUND ( 'NONE', #174, .T. ) ;
#102 = DIRECTION ( 'NONE',  ( -1.365923996832131600E-016, -1.000000000000000000, 0.0000000000000000000 ) ) ;
#103 = DIRECTION ( 'NONE',  ( 1.000000000000000000, 0.0000000000000000000, 0.0000000000000000000 ) ) ;
#104 = PERSON_AND_ORGANIZATION ( #169, #226 ) ;
#105 = SECURITY_CLASSIFICATION_LEVEL ( 'unclassified' ) ;
#106 =( GEOMETRIC_REPRESENTATION_CONTEXT ( 3 ) GLOBAL_UNCERTAINTY_ASSIGNED_CONTEXT ( ( #32 ) ) GLOBAL_UNIT_ASSIGNED_CONTEXT ( ( #176, #164, #44 ) ) REPRESENTATION_CONTEXT ( 'NONE', 'WORKASPACE' ) );
#107 = PRODUCT_DEFINITION ( 'UNKNOWN', '', #53, #88 ) ;
#108 = LINE ( 'NONE', #202, #15 ) ;
#109 = EDGE_CURVE ( 'NONE', #90, #1, #191, .T. ) ;
#110 = CC_DESIGN_PERSON_AND_ORGANIZATION_ASSIGNMENT ( #104, #217, ( #53 ) ) ;
#111 = LOCAL_TIME ( 15, 52, 20.00000000000000000, #165 ) ;
#112 = ORIENTED_EDGE ( 'NONE', *, *, #66, .T. ) ;
#113 = VECTOR ( 'NONE', #195, 1000.000000000000000 ) ;
#114 = ADVANCED_FACE ( 'NONE', ( #78 ), #5, .F. ) ;
#115 = CALENDAR_DATE ( 2017, 1, 3 ) ;
#116 = AXIS2_PLACEMENT_3D ( 'NONE', #198, #102, #231 ) ;
#117 = CARTESIAN_POINT ( 'NONE',  ( -25.39999999999999900, 25.39999999999999900, 1.000000000000000000 ) ) ;
#118 = CARTESIAN_POINT ( 'NONE',  ( 25.39999999999999900, 25.39999999999999100, 0.0000000000000000000 ) ) ;
#119 = LINE ( 'NONE', #22, #212 ) ;
#120 = APPROVAL ( #30, 'UNSPECIFIED' ) ;
#121 = EDGE_CURVE ( 'NONE', #181, #227, #171, .T. ) ;
#122 = DATE_AND_TIME ( #173, #220 ) ;
#123 = SECURITY_CLASSIFICATION ( '', '', #105 ) ;
#124 = ORIENTED_EDGE ( 'NONE', *, *, #81, .F. ) ;
#125 = PERSON_AND_ORGANIZATION_ROLE ( 'design_owner' ) ;
#126 = DATE_TIME_ROLE ( 'classification_date' ) ;
#127 = ORIENTED_EDGE ( 'NONE', *, *, #163, .T. ) ;
#128 = EDGE_LOOP ( 'NONE', ( #207, #100, #235, #197 ) ) ;
#129 = VECTOR ( 'NONE', #23, 1000.000000000000000 ) ;
#130 = PERSON_AND_ORGANIZATION ( #169, #226 ) ;
#131 = ORIENTED_EDGE ( 'NONE', *, *, #121, .T. ) ;
#132 = PLANE ( 'NONE',  #64 ) ;
#133 = ORIENTED_EDGE ( 'NONE', *, *, #109, .T. ) ;
#134 = VECTOR ( 'NONE', #58, 1000.000000000000000 ) ;
#135 = ORIENTED_EDGE ( 'NONE', *, *, #151, .T. ) ;
#136 = CC_DESIGN_APPROVAL ( #120, ( #107 ) ) ;
#137 = EDGE_CURVE ( 'NONE', #181, #73, #24, .T. ) ;
#138 = ORIENTED_EDGE ( 'NONE', *, *, #163, .F. ) ;
#139 = CARTESIAN_POINT ( 'NONE',  ( -25.39999999999999900, 25.39999999999999900, 1.000000000000000000 ) ) ;
#140 = LINE ( 'NONE', #10, #87 ) ;
#141 = CARTESIAN_POINT ( 'NONE',  ( 25.40000000000000600, -25.39999999999998400, 1.000000000000000000 ) ) ;
#142 = CARTESIAN_POINT ( 'NONE',  ( -25.39999999999999100, -25.39999999999999100, 0.0000000000000000000 ) ) ;
#143 = CARTESIAN_POINT ( 'NONE',  ( -25.39999999999999100, -25.39999999999999100, 1.000000000000000000 ) ) ;
#144 = CARTESIAN_POINT ( 'NONE',  ( -25.39999999999999900, 25.39999999999999900, 0.0000000000000000000 ) ) ;
#145 = APPLICATION_PROTOCOL_DEFINITION ( 'international standard', 'config_control_design', 1994, #12 ) ;
#146 = APPROVAL_ROLE ( '' ) ;
#147 = DATE_AND_TIME ( #194, #237 ) ;
#148 = CC_DESIGN_PERSON_AND_ORGANIZATION_ASSIGNMENT ( #21, #45, ( #107 ) ) ;
#149 = PRODUCT ( 'Web Model 46099_48925', 'Web Model 46099_48925', '', ( #232 ) ) ;
#150 = ORIENTED_EDGE ( 'NONE', *, *, #175, .T. ) ;
#151 = EDGE_CURVE ( 'NONE', #227, #35, #119, .T. ) ;
#152 = MANIFOLD_SOLID_BREP ( 'Boss-Extrude1', #19 ) ;
#153 = PRODUCT_DEFINITION_SHAPE ( 'NONE', 'NONE',  #107 ) ;
#154 = CALENDAR_DATE ( 2017, 1, 3 ) ;
#155 = ORIENTED_EDGE ( 'NONE', *, *, #66, .F. ) ;
#156 = FACE_OUTER_BOUND ( 'NONE', #167, .T. ) ;
#157 = PERSON_AND_ORGANIZATION ( #169, #226 ) ;
#158 = DIRECTION ( 'NONE',  ( 1.365923996832132300E-016, -1.000000000000000000, 0.0000000000000000000 ) ) ;
#159 = DIRECTION ( 'NONE',  ( -1.000000000000000000, -1.365923996832132300E-016, 0.0000000000000000000 ) ) ;
#160 = LINE ( 'NONE', #63, #9 ) ;
#161 = CARTESIAN_POINT ( 'NONE',  ( -25.39999999999999900, 25.39999999999999900, 0.0000000000000000000 ) ) ;
#162 = CARTESIAN_POINT ( 'NONE',  ( -25.39999999999999900, 25.39999999999999900, 1.000000000000000000 ) ) ;
#163 = EDGE_CURVE ( 'NONE', #73, #35, #20, .T. ) ;
#164 =( NAMED_UNIT ( * ) PLANE_ANGLE_UNIT ( ) SI_UNIT ( $, .RADIAN. ) );
#165 = COORDINATED_UNIVERSAL_TIME_OFFSET ( 5, 0, .BEHIND. ) ;
#166 = APPROVAL_ROLE ( '' ) ;
#167 = EDGE_LOOP ( 'NONE', ( #135, #138, #187, #131 ) ) ;
#168 = FACE_OUTER_BOUND ( 'NONE', #83, .T. ) ;
#169 = PERSON ( 'UNSPECIFIED', 'UNSPECIFIED', 'UNSPECIFIED', ('UNSPECIFIED'), ('UNSPECIFIED'), ('UNSPECIFIED') ) ;
#170 = LOCAL_TIME ( 15, 52, 20.00000000000000000, #215 ) ;
#171 = LINE ( 'NONE', #117, #71 ) ;
#172 = ADVANCED_FACE ( 'NONE', ( #168 ), #132, .F. ) ;
#173 = CALENDAR_DATE ( 2017, 1, 3 ) ;
#174 = EDGE_LOOP ( 'NONE', ( #76, #228, #218, #112 ) ) ;
#175 = EDGE_CURVE ( 'NONE', #35, #90, #208, .T. ) ;
#176 =( LENGTH_UNIT ( ) NAMED_UNIT ( * ) SI_UNIT ( .MILLI., .METRE. ) );
#177 = DIRECTION ( 'NONE',  ( 1.365923996832131900E-016, -1.000000000000000000, 0.0000000000000000000 ) ) ;
#178 = VECTOR ( 'NONE', #55, 1000.000000000000000 ) ;
#179 = CARTESIAN_POINT ( 'NONE',  ( 25.39999999999999900, 25.39999999999999100, 0.0000000000000000000 ) ) ;
#180 = PERSON_AND_ORGANIZATION ( #169, #226 ) ;
#181 = VERTEX_POINT ( 'NONE', #209 ) ;
#182 = DIRECTION ( 'NONE',  ( -1.365923996832131900E-016, 1.000000000000000000, 0.0000000000000000000 ) ) ;
#183 = DATE_TIME_ROLE ( 'creation_date' ) ;
#184 = VERTEX_POINT ( 'NONE', #79 ) ;
#185 = ORIENTED_EDGE ( 'NONE', *, *, #109, .F. ) ;
#186 = LINE ( 'NONE', #230, #134 ) ;
#187 = ORIENTED_EDGE ( 'NONE', *, *, #137, .F. ) ;
#188 = EDGE_CURVE ( 'NONE', #97, #90, #108, .T. ) ;
#189 = CARTESIAN_POINT ( 'NONE',  ( 0.0000000000000000000, 0.0000000000000000000, 0.0000000000000000000 ) ) ;
#190 = DIRECTION ( 'NONE',  ( 1.000000000000000000, 0.0000000000000000000, 0.0000000000000000000 ) ) ;
#191 = LINE ( 'NONE', #118, #178 ) ;
#192 = COORDINATED_UNIVERSAL_TIME_OFFSET ( 5, 0, .BEHIND. ) ;
#193 = DIRECTION ( 'NONE',  ( -0.0000000000000000000, -0.0000000000000000000, -1.000000000000000000 ) ) ;
#194 = CALENDAR_DATE ( 2017, 1, 3 ) ;
#195 = DIRECTION ( 'NONE',  ( -0.0000000000000000000, -0.0000000000000000000, -1.000000000000000000 ) ) ;
#196 = DIRECTION ( 'NONE',  ( 1.000000000000000000, 0.0000000000000000000, 0.0000000000000000000 ) ) ;
#197 = ORIENTED_EDGE ( 'NONE', *, *, #94, .T. ) ;
#198 = CARTESIAN_POINT ( 'NONE',  ( -25.39999999999999900, 25.39999999999999900, 1.000000000000000000 ) ) ;
#199 = EDGE_CURVE ( 'NONE', #73, #97, #160, .T. ) ;
#200 = LOCAL_TIME ( 15, 52, 20.00000000000000000, #3 ) ;
#201 = APPROVAL_ROLE ( '' ) ;
#202 = CARTESIAN_POINT ( 'NONE',  ( 25.40000000000000600, -25.39999999999998400, 1.000000000000000000 ) ) ;
#203 = SHAPE_DEFINITION_REPRESENTATION ( #153, #49 ) ;
#204 = APPROVAL_DATE_TIME ( #11, #67 ) ;
#205 = ADVANCED_FACE ( 'NONE', ( #156 ), #14, .F. ) ;
#206 = ORIENTED_EDGE ( 'NONE', *, *, #151, .F. ) ;
#207 = ORIENTED_EDGE ( 'NONE', *, *, #137, .T. ) ;
#208 = LINE ( 'NONE', #211, #219 ) ;
#209 = CARTESIAN_POINT ( 'NONE',  ( -25.39999999999999900, 25.39999999999999900, 1.000000000000000000 ) ) ;
#210 = APPROVAL_PERSON_ORGANIZATION ( #16, #67, #201 ) ;
#211 = CARTESIAN_POINT ( 'NONE',  ( -25.39999999999999100, -25.39999999999999100, 0.0000000000000000000 ) ) ;
#212 = VECTOR ( 'NONE', #38, 1000.000000000000000 ) ;
#213 = PLANE ( 'NONE',  #18 ) ;
#214 = PLANE ( 'NONE',  #116 ) ;
#215 = COORDINATED_UNIVERSAL_TIME_OFFSET ( 5, 0, .BEHIND. ) ;
#216 = DIRECTION ( 'NONE',  ( 0.0000000000000000000, 0.0000000000000000000, 1.000000000000000000 ) ) ;
#217 = PERSON_AND_ORGANIZATION_ROLE ( 'design_supplier' ) ;
#218 = ORIENTED_EDGE ( 'NONE', *, *, #94, .F. ) ;
#219 = VECTOR ( 'NONE', #225, 1000.000000000000000 ) ;
#220 = LOCAL_TIME ( 15, 52, 20.00000000000000000, #26 ) ;
#221 = ADVANCED_FACE ( 'NONE', ( #101 ), #214, .F. ) ;
#222 = ORIENTED_EDGE ( 'NONE', *, *, #175, .F. ) ;
#223 = ORIENTED_EDGE ( 'NONE', *, *, #188, .F. ) ;
#224 = VECTOR ( 'NONE', #77, 1000.000000000000000 ) ;
#225 = DIRECTION ( 'NONE',  ( 1.000000000000000000, 1.365923996832131600E-016, 0.0000000000000000000 ) ) ;
#226 = ORGANIZATION ( 'UNSPECIFIED', 'UNSPECIFIED', '' ) ;
#227 = VERTEX_POINT ( 'NONE', #144 ) ;
#228 = ORIENTED_EDGE ( 'NONE', *, *, #121, .F. ) ;
#229 = LINE ( 'NONE', #139, #129 ) ;
#230 = CARTESIAN_POINT ( 'NONE',  ( 25.39999999999999900, 25.39999999999999100, 1.000000000000000000 ) ) ;
#231 = DIRECTION ( 'NONE',  ( 1.000000000000000000, -1.365923996832131600E-016, 0.0000000000000000000 ) ) ;
#232 = MECHANICAL_CONTEXT ( 'NONE', #84, 'mechanical' ) ;
#233 = PERSON_AND_ORGANIZATION_ROLE ( 'classification_officer' ) ;
#234 = AXIS2_PLACEMENT_3D ( 'NONE', #8, #27, #196 ) ;
#235 = ORIENTED_EDGE ( 'NONE', *, *, #52, .T. ) ;
#236 = APPROVAL_PERSON_ORGANIZATION ( #46, #29, #146 ) ;
#237 = LOCAL_TIME ( 15, 52, 20.00000000000000000, #192 ) ;
ENDSEC;
END-ISO-10303-21;
